  0
SECTION
  2
HEADER
  9
$ACADVER
  1
AC1015
  9
$ACADMAINTVER
 70
    20
  9
$DWGCODEPAGE
  3
ANSI_1252
  9
$INSBASE
 10
0.0
 20
0.0
 30
0.0
  9
$EXTMIN
 10
0.0000000220396217
 20
3.451071977615356
 30
-14.18748474121094
  9
$EXTMAX
 10
11.62922763824463
 20
4.451071739196777
 30
9.999999514770781
  9
$LIMMIN
 10
0.0
 20
0.0
  9
$LIMMAX
 10
12.0
 20
9.0
  9
$ORTHOMODE
 70
     0
  9
$REGENMODE
 70
     1
  9
$FILLMODE
 70
     1
  9
$QTEXTMODE
 70
     0
  9
$MIRRTEXT
 70
     1
  9
$LTSCALE
 40
1.0
  9
$ATTMODE
 70
     1
  9
$TEXTSIZE
 40
0.2
  9
$TRACEWID
 40
0.05
  9
$TEXTSTYLE
  7
Standard
  9
$CLAYER
  8
0
  9
$CELTYPE
  6
ByLayer
  9
$CECOLOR
 62
   256
  9
$CELTSCALE
 40
1.0
  9
$DISPSILH
 70
     0
  9
$DIMSCALE
 40
1.0
  9
$DIMASZ
 40
0.18
  9
$DIMEXO
 40
0.0625
  9
$DIMDLI
 40
0.38
  9
$DIMRND
 40
0.0
  9
$DIMDLE
 40
0.0
  9
$DIMEXE
 40
0.18
  9
$DIMTP
 40
0.0
  9
$DIMTM
 40
0.0
  9
$DIMTXT
 40
0.18
  9
$DIMCEN
 40
0.09
  9
$DIMTSZ
 40
0.0
  9
$DIMTOL
 70
     0
  9
$DIMLIM
 70
     0
  9
$DIMTIH
 70
     1
  9
$DIMTOH
 70
     1
  9
$DIMSE1
 70
     0
  9
$DIMSE2
 70
     0
  9
$DIMTAD
 70
     0
  9
$DIMZIN
 70
     0
  9
$DIMBLK
  1
ArchTick
  9
$DIMASO
 70
     1
  9
$DIMSHO
 70
     1
  9
$DIMPOST
  1

  9
$DIMAPOST
  1

  9
$DIMALT
 70
     0
  9
$DIMALTD
 70
     2
  9
$DIMALTF
 40
25.4
  9
$DIMLFAC
 40
1.0
  9
$DIMTOFL
 70
     0
  9
$DIMTVP
 40
0.0
  9
$DIMTIX
 70
     0
  9
$DIMSOXD
 70
     0
  9
$DIMSAH
 70
     0
  9
$DIMBLK1
  1

  9
$DIMBLK2
  1

  9
$DIMSTYLE
  2
Copy of Standard
  9
$DIMCLRD
 70
     0
  9
$DIMCLRE
 70
     0
  9
$DIMCLRT
 70
     0
  9
$DIMTFAC
 40
1.0
  9
$DIMGAP
 40
0.09
  9
$DIMJUST
 70
     0
  9
$DIMSD1
 70
     0
  9
$DIMSD2
 70
     0
  9
$DIMTOLJ
 70
     1
  9
$DIMTZIN
 70
     0
  9
$DIMALTZ
 70
     0
  9
$DIMALTTZ
 70
     0
  9
$DIMUPT
 70
     0
  9
$DIMDEC
 70
     4
  9
$DIMTDEC
 70
     4
  9
$DIMALTU
 70
     2
  9
$DIMALTTD
 70
     2
  9
$DIMTXSTY
  7
Standard
  9
$DIMAUNIT
 70
     0
  9
$DIMADEC
 70
     0
  9
$DIMALTRND
 40
0.0
  9
$DIMAZIN
 70
     0
  9
$DIMDSEP
 70
    46
  9
$DIMATFIT
 70
     3
  9
$DIMFRAC
 70
     0
  9
$DIMLDRBLK
  1

  9
$DIMLUNIT
 70
     4
  9
$DIMLWD
 70
    -2
  9
$DIMLWE
 70
    -2
  9
$DIMTMOVE
 70
     0
  9
$LUNITS
 70
     2
  9
$LUPREC
 70
     4
  9
$SKETCHINC
 40
0.1
  9
$FILLETRAD
 40
0.5
  9
$AUNITS
 70
     0
  9
$AUPREC
 70
     0
  9
$MENU
  1
.
  9
$ELEVATION
 40
0.0
  9
$PELEVATION
 40
0.0
  9
$THICKNESS
 40
0.0
  9
$LIMCHECK
 70
     0
  9
$CHAMFERA
 40
0.5
  9
$CHAMFERB
 40
0.5
  9
$CHAMFERC
 40
1.0
  9
$CHAMFERD
 40
0.0
  9
$SKPOLY
 70
     0
  9
$TDCREATE
 40
2452587.497350764
  9
$TDUCREATE
 40
2452587.705684097
  9
$TDUPDATE
 40
2454459.460204017
  9
$TDUUPDATE
 40
2454459.668537349
  9
$TDINDWG
 40
0.5820760764
  9
$TDUSRTIMER
 40
0.5820757176
  9
$USRTIMER
 70
     1
  9
$ANGBASE
 50
0.0
  9
$ANGDIR
 70
     0
  9
$PDMODE
 70
     0
  9
$PDSIZE
 40
0.0
  9
$PLINEWID
 40
0.0
  9
$SPLFRAME
 70
     0
  9
$SPLINETYPE
 70
     6
  9
$SPLINESEGS
 70
     8
  9
$HANDSEED
  5
FEA
  9
$SURFTAB1
 70
     6
  9
$SURFTAB2
 70
     6
  9
$SURFTYPE
 70
     6
  9
$SURFU
 70
     6
  9
$SURFV
 70
     6
  9
$UCSBASE
  2

  9
$UCSNAME
  2

  9
$UCSORG
 10
0.0
 20
0.0
 30
0.0
  9
$UCSXDIR
 10
1.0
 20
0.0
 30
0.0
  9
$UCSYDIR
 10
0.0
 20
0.0
 30
1.0
  9
$UCSORTHOREF
  2

  9
$UCSORTHOVIEW
 70
     0
  9
$UCSORGTOP
 10
0.0
 20
0.0
 30
0.0
  9
$UCSORGBOTTOM
 10
0.0
 20
0.0
 30
0.0
  9
$UCSORGLEFT
 10
0.0
 20
0.0
 30
0.0
  9
$UCSORGRIGHT
 10
0.0
 20
0.0
 30
0.0
  9
$UCSORGFRONT
 10
0.0
 20
0.0
 30
0.0
  9
$UCSORGBACK
 10
0.0
 20
0.0
 30
0.0
  9
$PUCSBASE
  2

  9
$PUCSNAME
  2

  9
$PUCSORG
 10
0.0
 20
0.0
 30
0.0
  9
$PUCSXDIR
 10
1.0
 20
0.0
 30
0.0
  9
$PUCSYDIR
 10
0.0
 20
1.0
 30
0.0
  9
$PUCSORTHOREF
  2

  9
$PUCSORTHOVIEW
 70
     0
  9
$PUCSORGTOP
 10
0.0
 20
0.0
 30
0.0
  9
$PUCSORGBOTTOM
 10
0.0
 20
0.0
 30
0.0
  9
$PUCSORGLEFT
 10
0.0
 20
0.0
 30
0.0
  9
$PUCSORGRIGHT
 10
0.0
 20
0.0
 30
0.0
  9
$PUCSORGFRONT
 10
0.0
 20
0.0
 30
0.0
  9
$PUCSORGBACK
 10
0.0
 20
0.0
 30
0.0
  9
$USERI1
 70
     0
  9
$USERI2
 70
     0
  9
$USERI3
 70
     0
  9
$USERI4
 70
     0
  9
$USERI5
 70
     0
  9
$USERR1
 40
0.0
  9
$USERR2
 40
0.0
  9
$USERR3
 40
0.0
  9
$USERR4
 40
0.0
  9
$USERR5
 40
0.0
  9
$WORLDVIEW
 70
     1
  9
$SHADEDGE
 70
     3
  9
$SHADEDIF
 70
    70
  9
$TILEMODE
 70
     1
  9
$MAXACTVP
 70
    64
  9
$PINSBASE
 10
0.0
 20
0.0
 30
0.0
  9
$PLIMCHECK
 70
     0
  9
$PEXTMIN
 10
1.000000000000000E+20
 20
1.000000000000000E+20
 30
1.000000000000000E+20
  9
$PEXTMAX
 10
-1.000000000000000E+20
 20
-1.000000000000000E+20
 30
-1.000000000000000E+20
  9
$PLIMMIN
 10
0.0
 20
0.0
  9
$PLIMMAX
 10
12.0
 20
9.0
  9
$UNITMODE
 70
     0
  9
$VISRETAIN
 70
     1
  9
$PLINEGEN
 70
     0
  9
$PSLTSCALE
 70
     1
  9
$TREEDEPTH
 70
  3020
  9
$CMLSTYLE
  2
Standard
  9
$CMLJUST
 70
     0
  9
$CMLSCALE
 40
1.0
  9
$PROXYGRAPHICS
 70
     1
  9
$MEASUREMENT
 70
     0
  9
$CELWEIGHT
370
    -1
  9
$ENDCAPS
280
     0
  9
$JOINSTYLE
280
     0
  9
$LWDISPLAY
290
     0
  9
$INSUNITS
 70
     1
  9
$HYPERLINKBASE
  1

  9
$STYLESHEET
  1

  9
$XEDIT
290
     1
  9
$CEPSNTYPE
380
     0
  9
$PSTYLEMODE
290
     1
  9
$FINGERPRINTGUID
  2
{FDEAD576-A652-11D2-9A35-0060089B3A3F}
  9
$VERSIONGUID
  2
{19FD18E2-BDFD-4569-A9E9-54BD3933A675}
  9
$EXTNAMES
290
     1
  9
$PSVPSCALE
 40
0.0
  9
$OLESTARTUP
290
     0
  0
ENDSEC
  0
SECTION
  2
CLASSES
  0
CLASS
  1
ACDBDICTIONARYWDFLT
  2
AcDbDictionaryWithDefault
  3
ObjectDBX Classes
 90
        0
280
     0
281
     0
  0
CLASS
  1
ACDBPLACEHOLDER
  2
AcDbPlaceHolder
  3
ObjectDBX Classes
 90
        0
280
     0
281
     0
  0
CLASS
  1
LAYOUT
  2
AcDbLayout
  3
ObjectDBX Classes
 90
        0
280
     0
281
     0
  0
CLASS
  1
DICTIONARYVAR
  2
AcDbDictionaryVar
  3
ObjectDBX Classes
 90
        0
280
     0
281
     0
  0
CLASS
  1
TABLESTYLE
  2
AcDbTableStyle
  3
ObjectDBX Classes
 90
     4095
280
     0
281
     0
  0
CLASS
  1
MATERIAL
  2
AcDbMaterial
  3
ObjectDBX Classes
 90
     1153
280
     0
281
     0
  0
CLASS
  1
VISUALSTYLE
  2
AcDbVisualStyle
  3
ObjectDBX Classes
 90
     4095
280
     0
281
     0
  0
CLASS
  1
SCALE
  2
AcDbScale
  3
ObjectDBX Classes
 90
     1153
280
     0
281
     0
  0
CLASS
  1
MLEADERSTYLE
  2
AcDbMLeaderStyle
  3
ACDB_MLEADERSTYLE_CLASS
 90
     4095
280
     0
281
     0
  0
CLASS
  1
CELLSTYLEMAP
  2
AcDbCellStyleMap
  3
ObjectDBX Classes
 90
     1152
280
     0
281
     0
  0
ENDSEC
  0
SECTION
  2
TABLES
  0
TABLE
  2
VPORT
  5
8
330
0
100
AcDbSymbolTable
 70
     1
  0
VPORT
  5
7D9
330
8
100
AcDbSymbolTableRecord
100
AcDbViewportTableRecord
  2
*Active
 70
     0
 10
0.0
 20
0.0
 11
1.0
 21
1.0
 12
6.212605203523765
 22
-9.902308761939966
 13
0.0
 23
0.0
 14
0.5
 24
0.5
 15
0.5
 25
0.5
 16
0.0
 26
-1.0
 36
0.0
 17
6.349760640273052
 27
3.653930972436488
 37
0.7315449140306624
 40
10.11684060281831
 41
1.952107279693486
 42
50.0
 43
0.0
 44
0.0
 50
0.0
 51
0.0
 71
     0
 72
   100
 73
     1
 74
     3
 75
     0
 76
     0
 77
     0
 78
     0
281
     0
 65
     1
110
0.0
120
0.0
130
0.0
111
1.0
121
0.0
131
0.0
112
0.0
122
0.0
132
1.0
 79
     0
146
0.0
  0
ENDTAB
  0
TABLE
  2
LTYPE
  5
5
330
0
100
AcDbSymbolTable
 70
     1
  0
LTYPE
  5
14
330
5
100
AcDbSymbolTableRecord
100
AcDbLinetypeTableRecord
  2
ByBlock
 70
     0
  3

 72
    65
 73
     0
 40
0.0
  0
LTYPE
  5
15
330
5
100
AcDbSymbolTableRecord
100
AcDbLinetypeTableRecord
  2
ByLayer
 70
     0
  3

 72
    65
 73
     0
 40
0.0
  0
LTYPE
  5
16
330
5
100
AcDbSymbolTableRecord
100
AcDbLinetypeTableRecord
  2
Continuous
 70
     0
  3
Solid line
 72
    65
 73
     0
 40
0.0
  0
ENDTAB
  0
TABLE
  2
LAYER
  5
2
330
0
100
AcDbSymbolTable
 70
     5
  0
LAYER
  5
10
102
{ACAD_XDICTIONARY
360
AE6
102
}
330
2
100
AcDbSymbolTableRecord
100
AcDbLayerTableRecord
  2
0
 70
     0
 62
     7
  6
Continuous
370
    -3
390
F
  0
LAYER
  5
D2
102
{ACAD_XDICTIONARY
360
AE8
102
}
330
2
100
AcDbSymbolTableRecord
100
AcDbLayerTableRecord
  2
Layer1
 70
     0
 62
     1
  6
Continuous
370
    -3
390
F
  0
LAYER
  5
5D4
330
2
100
AcDbSymbolTableRecord
100
AcDbLayerTableRecord
  2
Defpoints
 70
     0
 62
     7
  6
Continuous
290
     0
370
    -3
390
F
  0
LAYER
  5
798
102
{ACAD_XDICTIONARY
360
AEA
102
}
330
2
100
AcDbSymbolTableRecord
100
AcDbLayerTableRecord
  2
HOLES
 70
     0
 62
     7
  6
Continuous
370
    -3
390
F
  0
LAYER
  5
83E
102
{ACAD_XDICTIONARY
360
AEC
102
}
330
2
100
AcDbSymbolTableRecord
100
AcDbLayerTableRecord
  2
ASHADE
 70
     4
 62
     7
  6
Continuous
370
    -3
390
F
  0
ENDTAB
  0
TABLE
  2
STYLE
  5
3
330
0
100
AcDbSymbolTable
 70
     2
  0
STYLE
  5
11
330
3
100
AcDbSymbolTableRecord
100
AcDbTextStyleTableRecord
  2
Standard
 70
     0
 40
0.0
 41
1.0
 50
0.0
 71
     0
 42
0.2
  3
txt
  4

  0
STYLE
  5
838
330
3
100
AcDbSymbolTableRecord
100
AcDbTextStyleTableRecord
  2
ASHADE
 70
     0
 40
0.2
 41
1.0
 50
0.0
 71
     0
 42
0.2
  3
simplex
  4

  0
ENDTAB
  0
TABLE
  2
VIEW
  5
6
330
0
100
AcDbSymbolTable
 70
     0
  0
ENDTAB
  0
TABLE
  2
UCS
  5
7
330
0
100
AcDbSymbolTable
 70
     0
  0
ENDTAB
  0
TABLE
  2
APPID
  5
9
330
0
100
AcDbSymbolTable
 70
     7
  0
APPID
  5
12
330
9
100
AcDbSymbolTableRecord
100
AcDbRegAppTableRecord
  2
ACAD
 70
     0
  0
APPID
  5
835
330
9
100
AcDbSymbolTableRecord
100
AcDbRegAppTableRecord
  2
ACAD_MLEADERVER
 70
     0
  0
APPID
  5
839
330
9
100
AcDbSymbolTableRecord
100
AcDbRegAppTableRecord
  2
AVE_RENDER
 70
     0
  0
APPID
  5
83A
330
9
100
AcDbSymbolTableRecord
100
AcDbRegAppTableRecord
  2
AVE_ENTITY_MATERIAL
 70
     0
  0
APPID
  5
83B
330
9
100
AcDbSymbolTableRecord
100
AcDbRegAppTableRecord
  2
AVE_FINISH
 70
     0
  0
APPID
  5
83C
330
9
100
AcDbSymbolTableRecord
100
AcDbRegAppTableRecord
  2
AVE_MATERIAL
 70
     0
  0
APPID
  5
83D
330
9
100
AcDbSymbolTableRecord
100
AcDbRegAppTableRecord
  2
AVE_GLOBAL
 70
     0
  0
ENDTAB
  0
TABLE
  2
DIMSTYLE
  5
A
330
0
100
AcDbSymbolTable
 70
     3
100
AcDbDimStyleTable
 71
     0
  0
DIMSTYLE
105
27
330
A
100
AcDbSymbolTableRecord
100
AcDbDimStyleTableRecord
  2
Standard
 70
     0
340
11
  0
DIMSTYLE
105
243
330
A
100
AcDbSymbolTableRecord
100
AcDbDimStyleTableRecord
  2
Copy of Standard
 70
     0
277
     4
340
11
342
23F
  0
DIMSTYLE
105
799
330
A
100
AcDbSymbolTableRecord
100
AcDbDimStyleTableRecord
  2
COPY_OF_STANDARD
 70
     0
279
     2
340
11
  0
ENDTAB
  0
TABLE
  2
BLOCK_RECORD
  5
1
330
0
100
AcDbSymbolTable
 70
    12
  0
BLOCK_RECORD
  5
1F
330
1
100
AcDbSymbolTableRecord
100
AcDbBlockTableRecord
  2
*Model_Space
340
22
  0
BLOCK_RECORD
  5
1B
330
1
100
AcDbSymbolTableRecord
100
AcDbBlockTableRecord
  2
*Paper_Space
340
1E
  0
BLOCK_RECORD
  5
23
330
1
100
AcDbSymbolTableRecord
100
AcDbBlockTableRecord
  2
*Paper_Space0
340
26
  0
BLOCK_RECORD
  5
89
330
1
100
AcDbSymbolTableRecord
100
AcDbBlockTableRecord
  2
A$C402506B2
340
0
  0
BLOCK_RECORD
  5
23F
330
1
100
AcDbSymbolTableRecord
100
AcDbBlockTableRecord
  2
_ArchTick
340
0
  0
BLOCK_RECORD
  5
332
330
1
100
AcDbSymbolTableRecord
100
AcDbBlockTableRecord
  2
A$C62876B25
340
0
  0
BLOCK_RECORD
  5
376
330
1
100
AcDbSymbolTableRecord
100
AcDbBlockTableRecord
  2
A$C0CF7183B
340
0
  0
BLOCK_RECORD
  5
4B2
330
1
100
AcDbSymbolTableRecord
100
AcDbBlockTableRecord
  2
A$C371D6E50
340
0
  0
BLOCK_RECORD
  5
562
330
1
100
AcDbSymbolTableRecord
100
AcDbBlockTableRecord
  2
A$C69274768
340
0
  0
BLOCK_RECORD
  5
59A
330
1
100
AcDbSymbolTableRecord
100
AcDbBlockTableRecord
  2
A$C3BD243A1
340
0
  0
BLOCK_RECORD
  5
83F
330
1
100
AcDbSymbolTableRecord
100
AcDbBlockTableRecord
  2
AVE_GLOBAL
340
0
102
{BLKREFS
331
842
102
}
  0
BLOCK_RECORD
  5
848
330
1
100
AcDbSymbolTableRecord
100
AcDbBlockTableRecord
  2
AVE_RENDER
340
0
102
{BLKREFS
331
84B
331
84C
331
84D
331
84E
331
84F
331
850
331
851
331
852
102
}
  0
BLOCK_RECORD
  5
AAB
330
1
100
AcDbSymbolTableRecord
100
AcDbBlockTableRecord
  2
RM_SDB
340
0
102
{BLKREFS
331
D59
331
FC8
102
}
  0
ENDTAB
  0
ENDSEC
  0
SECTION
  2
BLOCKS
  0
BLOCK
  5
20
330
1F
100
AcDbEntity
  8
0
100
AcDbBlockBegin
  2
*Model_Space
 70
     0
 10
0.0
 20
0.0
 30
0.0
  3
*Model_Space
  1

  0
ENDBLK
  5
21
330
1F
100
AcDbEntity
  8
0
100
AcDbBlockEnd
  0
BLOCK
  5
1C
330
1B
100
AcDbEntity
 67
     1
  8
0
100
AcDbBlockBegin
  2
*Paper_Space
 70
     0
 10
0.0
 20
0.0
 30
0.0
  3
*Paper_Space
  1

  0
ENDBLK
  5
1D
330
1B
100
AcDbEntity
 67
     1
  8
0
100
AcDbBlockEnd
  0
BLOCK
  5
24
330
23
100
AcDbEntity
 67
     1
  8
0
100
AcDbBlockBegin
  2
*Paper_Space0
 70
     0
 10
0.0
 20
0.0
 30
0.0
  3
*Paper_Space0
  1

  0
ENDBLK
  5
25
330
23
100
AcDbEntity
 67
     1
  8
0
100
AcDbBlockEnd
  0
BLOCK
  5
8B
330
89
100
AcDbEntity
  8
0
100
AcDbBlockBegin
  2
A$C402506B2
 70
     0
 10
0.0
 20
0.0
 30
0.0
  3
A$C402506B2
  1

  0
LINE
  5
8A
330
89
100
AcDbEntity
  8
0
100
AcDbLine
 10
1.99999997599076
 20
-0.0000000065864836
 30
0.0
 11
-0.000000024009239
 21
-0.0000000065864836
 31
0.0
  0
ENDBLK
  5
8C
330
89
100
AcDbEntity
  8
0
100
AcDbBlockEnd
  0
BLOCK
  5
241
330
23F
100
AcDbEntity
  8
0
100
AcDbBlockBegin
  2
_ArchTick
 70
     0
 10
0.0
 20
0.0
 30
0.0
  3
_ArchTick
  1

  0
LWPOLYLINE
  5
240
330
23F
100
AcDbEntity
  8
0
 62
     0
100
AcDbPolyline
 90
        2
 70
     0
 43
0.15
 10
-0.5
 20
-0.5
 10
0.5
 20
0.5
  0
ENDBLK
  5
242
330
23F
100
AcDbEntity
  8
0
100
AcDbBlockEnd
  0
BLOCK
  5
335
330
332
100
AcDbEntity
  8
0
100
AcDbBlockBegin
  2
A$C62876B25
 70
     0
 10
0.0
 20
0.0
 30
0.0
  3
A$C62876B25
  1

  0
ARC
  5
333
330
332
100
AcDbEntity
  8
0
100
AcDbCircle
 10
4.747076104803912
 20
-0.0146308894255172
 30
0.0
 40
5.365388799403604
100
AcDbArc
 50
18.5020939616608
 51
32.26026640746432
  0
LINE
  5
334
330
332
100
AcDbEntity
  8
0
100
AcDbLine
 10
0.0000000123864794
 20
0.0000000105636286
 30
0.0
 11
0.0000000123864794
 21
2.849231481021627
 31
0.0
  0
ENDBLK
  5
336
330
332
100
AcDbEntity
  8
0
100
AcDbBlockEnd
  0
BLOCK
  5
378
330
376
100
AcDbEntity
  8
0
100
AcDbBlockBegin
  2
A$C0CF7183B
 70
     0
 10
0.0
 20
0.0
 30
0.0
  3
A$C0CF7183B
  1

  0
ARC
  5
377
330
376
100
AcDbEntity
  8
0
100
AcDbCircle
 10
-4.537145498590048
 20
-1.10838087746436
 30
0.0
 40
5.365388799403604
100
AcDbArc
 50
11.92199408310056
 51
32.26026640746435
  0
ENDBLK
  5
379
330
376
100
AcDbEntity
  8
0
100
AcDbBlockEnd
  0
BLOCK
  5
4B4
330
4B2
100
AcDbEntity
  8
0
100
AcDbBlockBegin
  2
A$C371D6E50
 70
     0
 10
0.0
 20
0.0
 30
0.0
  3
A$C371D6E50
  1

  0
LINE
  5
4B3
330
4B2
100
AcDbEntity
  8
0
100
AcDbLine
 10
0.0
 20
0.0
 30
0.0
 11
0.0
 21
0.2187794715102882
 31
0.0
  0
ENDBLK
  5
4B5
330
4B2
100
AcDbEntity
  8
0
100
AcDbBlockEnd
  0
BLOCK
  5
564
330
562
100
AcDbEntity
  8
0
100
AcDbBlockBegin
  2
A$C69274768
 70
     0
 10
0.0
 20
0.0
 30
0.0
  3
A$C69274768
  1

  0
ARC
  5
563
330
562
100
AcDbEntity
  8
0
100
AcDbCircle
 10
-0.5175933990904609
 20
-0.2777095236602315
 30
0.0
 40
0.731212470009667
100
AcDbArc
 50
22.32087359577163
 51
44.93923083705086
  0
ENDBLK
  5
565
330
562
100
AcDbEntity
  8
0
100
AcDbBlockEnd
  0
BLOCK
  5
59C
330
59A
100
AcDbEntity
  8
0
100
AcDbBlockBegin
  2
A$C3BD243A1
 70
     0
 10
0.0
 20
0.0
 30
0.0
  3
A$C3BD243A1
  1

  0
3DSOLID
  5
59B
330
59A
100
AcDbEntity
  8
0
100
AcDbModelerGeometry
 70
     1
  1
koo lik n o         
  1
ni ^ *+0;:,4 ^ *+0\^ [ nh ^ LR nmqoqnqgmo QK o  
  1
mjqlffffffffffffff fqfffffffffffffffj:rooh n:rono 
  1
=0;& {rn {n {rn {rn |
  1
3*2/ {rn {rn {m {o |
  1
,7:33 {rn {rn {rn {l {rn {n |
  1
9><: {rn {k {j {m {rn {i 90-(>-; ,6183: |
  1
9><: {rn {h {g {m {rn {i 90-(>-; ,6183: |
  1
300/ {rn {rn {f {l |
  1
/3>1:r,*-9><: {rn rnqmkfhhhnhoikmnnf:roog rlqlfgofiomihgjkmkl:roof rfqmkllfmologhjhgli:roog rn o o o n o 90-(>-;@) V V V V |
  1
9><: {rn {no {nn {m {rn {nm -:):-,:; ,6183: |
  1
300/ {rn {rn {nl {k |
  1
<0:;8: {rn {nk {nj {ni {nh 90-(>-; {j {rn |
  1
9><: {rn {ng {nf {m {rn {nm -:):-,:; ,6183: |
  1
300/ {rn {rn {mo {h |
  1
/3>1:r,*-9><: {rn nqhkfffffghjommmgl rlqlfgofiomihgjkmkl:roof rmoqjoooooofmkllfng o n o o o rn 90-(>-;@) V V V V |
  1
<0:;8: {rn {mn {mm {ml {mk 90-(>-; {g {rn |
  1
<0:;8: {rn {mj {f {mi {mh -:):-,:; {j {rn |
  1
<0:;8: {rn {f {mj {mg {mf 90-(>-; {j {rn |
  1
<0:;8: {rn {lo {ln {f {nh -:):-,:; {lm {rn |
  1
:;8: {rn {ll {lk {ni {lj 90-(>-; |
  1
9><: {rn {li {lh {m {rn {lg 90-(>-; ,6183: |
  1
300/ {rn {rn {lf {no |
  1
<0:;8: {rn {ko {mi {ln {kn 90-(>-; {nn {rn |
  1
<0:;8: {rn {km {nl {kl {kk -:):-,:; {g {rn |
  1
<0:;8: {rn {nl {km {kj {ki 90-(>-; {g {rn |
  1
<0:;8: {rn {kh {kg {nl {mk -:):-,:; {kf {rn |
  1
:;8: {rn {jo {jn {ml {jm 90-(>-; |
  1
<0:;8: {rn {nj {nk {jl {jk 90-(>-; {j {rn |
  1
<0:;8: {rn {mo {jj {nk {mh 90-(>-; {nn {rn |
  1
:;8: {rn {ji {lk {nk {jh 90-(>-; |
  1
<0:;8: {rn {jg {jf {nj {mf -:):-,:; {lh {rn |
  1
:;8: {rn {io {ll {nj {in 90-(>-; |
  1
<0:;8: {rn {im {ni {jf {il -:):-,:; {lm {rn |
  1
<0:;8: {rn {ni {im {mo {kn -:):-,:; {lm {rn |
  1
300/ {rn {rn {im {ik |
  1
):-+:' {rn {nh {ij |
  1
):-+:' {rn {nh {ii |
  1
:336/,:r<*-): {rn rnqmkfhhhnhoikmnnf:roog nqhkffffffiionfok rlkqmhimhigkfklkmk rn o o o rlqilkfnfofifnlnkmf o n V V |
  1
9><: {rn {ih {ig {m {rn {if 90-(>-; ,6183: |
  1
300/ {rn {rn {jf {ng |
  1
/3>1:r,*-9><: {rn lqkffffffghjommmgl lqkfffffffiionfok rfqmkllfmoofkkjnhmk:roog o n o o o rn 90-(>-;@) V V V V |
  1
<0:;8: {rn {ho {kl {kg {hn 90-(>-; {nf {rn |
  1
<0:;8: {rn {jj {mo {hm {hl 90-(>-; {nn {rn |
  1
:;8: {rn {lk {hk {ln {hj 90-(>-; |
  1
<0:;8: {rn {mm {mn {hi {hh 90-(>-; {g {rn |
  1
<0:;8: {rn {lf {hg {mn {kk 90-(>-; {nf {rn |
  1
:;8: {rn {hf {jn {mn {jh 90-(>-; |
  1
<0:;8: {rn {go {gn {mm {ki -:):-,:; {gm {rn |
  1
:;8: {rn {gl {jo {mm {in 90-(>-; |
  1
<0:;8: {rn {gk {ml {gn {gj -:):-,:; {kf {rn |
  1
<0:;8: {rn {ml {gk {lf {hn -:):-,:; {kf {rn |
  1
300/ {rn {rn {gk {gi |
  1
):-+:' {rn {mk {gh |
  1
):-+:' {rn {mk {gg |
  1
:336/,:r<*-): {rn rnqmkfhhhnhoikmnnf:roog nqhkffffffiionfok riqlnjlofjgnhjolfhm rn o o o rlqilkfnfomffnngmhm o n V V |
  1
<0:;8: {rn {gf {fo {mj {jk -:):-,:; {fn {rn |
  1
:;8: {rn {ji {io {jl {fm 90-(>-; |
  1
<0:;8: {rn {mi {ko {gf {fl 90-(>-; {nn {rn |
  1
):-+:' {rn {jk {fk |
  1
,+->687+r<*-): {rn rnqmkfhhhnhoikmnnf:roog rlqlfgofiomihgjkmkl:roof rfqmkllfmologhjhgli:roog o o rn V V |
  1
<0:;8: {rn {fj {mg {fo {fi 90-(>-; {lh {rn |
  1
<0:;8: {rn {mg {fj {lo {il 90-(>-; {lh {rn |
  1
):-+:' {rn {jk {fh |
  1
,+->687+r<*-): {rn rnqmkfhhhnhoikmnnf:roog lqkfffffffiionfok rfqmkllfmologhjhgli:roog o o rn V V |
  1
<0:;8: {rn {ln {lo {fg {ff -:):-,:; {lm {rn |
  1
:;8: {rn {noo {ll {lo {non 90-(>-; |
  1
9><: {rn {nom {nol {m {rn {nok 90-(>-; ,6183: |
  1
/061+ {rn rnqmkfhhhnhoikmnnf:roog lqkfffffffiionfok rlhqkimmokhgfhgkkog |
  1
/061+ {rn rnqmkfhhhnhoikmnnf:roog rlqlfgofiomihgjkmkl:roof rlhqkimmokhgfhgkkog |
  1
9><: {rn {noj {noi {m {rn {if 90-(>-; ,6183: |
  1
300/ {rn {rn {fg {li |
  1
/3>1:r,*-9><: {rn lqkffffffghjommmgl rlqlfgofiomihgjkmkl:roof rknqooooooofmkllfnj n o o o rn o 90-(>-;@) V V V V |
  1
<0:;8: {rn {hg {lf {noh {nog 90-(>-; {nf {rn |
  1
:;8: {rn {jn {nof {kg {nno 90-(>-; |
  1
<0:;8: {rn {fg {nnn {ko {hl -:):-,:; {ig {rn |
  1
:;8: {rn {hk {nnm {hm {nnl 90-(>-; |
  1
):-+:' {rn {ff {nnk |
  1
:336/,:r<*-): {rn nqhkffffflhgmimjkh rlqlfgofiomihgjkmkl:roof rlkqmhimhigkfklkmk o rn o lqilkfnfohmffhogok o o n V V |
  1
<0:;8: {rn {nnj {nni {km {hh -:):-,:; {nnh {rn |
  1
:;8: {rn {hf {gl {hi {nng 90-(>-; |
  1
<0:;8: {rn {kl {ho {nnj {nnf 90-(>-; {nf {rn |
  1
):-+:' {rn {hh {nmo |
  1
<0:;8: {rn {nmn {kj {nni {nmm 90-(>-; {gm {rn |
  1
<0:;8: {rn {kj {nmn {kh {gj 90-(>-; {gm {rn |
  1
300/ {rn {rn {gn {noj |
  1
):-+:' {rn {hh {nml |
  1
<0:;8: {rn {kg {kh {nmk {nmj -:):-,:; {kf {rn |
  1
:;8: {rn {nmi {jo {kh {nmh 90-(>-; |
  1
9><: {rn {nmg {nmf {m {rn {nlo 90-(>-; ,6183: |
  1
/061+ {rn rnqmkfhhhnhoikmnnf:roog lqkfffffffiionfok rfqjonmlhkkjijihghi |
  1
/061+ {rn rnqmkfhhhnhoikmnnf:roog rlqlfgofiomihgjkmkl:roof rfqjonmlhkkjijihghi |
  1
<0:;8: {rn {nln {jl {jj {fl -:):-,:; {fn {rn |
  1
<0:;8: {rn {jl {nln {jg {fi -:):-,:; {fn {rn |
  1
300/ {rn {rn {nln {nom |
  1
:336/,:r<*-): {rn rnqmkfhhhnhoikmnnf:roog nqhkffffffiionfok rliqogmmoihkgkmnmoh rn o o o rlqjhfmkonmhigofgof o n V V |
  1
:;8: {rn {nnm {ji {gf {nlm 90-(>-; |
  1
/061+ {rn rnqmkfhhhnhoikmnnf:roog rlqlfgofiomihgjkmkl:roof rlmqfjffjklhlihiojj |
  1
<0:;8: {rn {jf {jg {nll {nlk -:):-,:; {lh {rn |
  1
:;8: {rn {io {nlj {fo {nli 90-(>-; |
  1
/061+ {rn rnqmkfhhhnhoikmnnf:roog lqkfffffffiionfok rlmqfjffjklhlihiojj |
  1
<0:;8: {rn {nll {hm {im {ff 90-(>-; {ig {rn |
  1
:;8: {rn {hk {noo {im {nlh 90-(>-; |
  1
):-+:' {rn {ff {nlg |
  1
:336/,:r<*-): {rn nqhkffffflhgmimjkh lqkfffffffiionfok rlkqmhimhigkfklkmk o n o rlqilkfnfohmffhogok o o n V V |
  1
9><: {rn {nlf {nko {m {rn {nkn 90-(>-; ,6183: |
  1
300/ {rn {lm {nkm {ik |
  1
,/7:-:r,*-9><: {rn nqhkffffflhgmimjkh nqhkffffffiionfok rlkqmhimhigkfklkmk kqolkmkjkgfmnllnnf o o rn o n o 90-(>-;@) V V V V |
  1
9><: {rn {gi {gm {m {rn {lg 90-(>-; ,6183: |
  1
300/ {rn {rn {nmk {ih |
  1
<0:;8: {rn {nmk {nkl {ho {nog -:):-,:; {noi {rn |
  1
:;8: {rn {nof {nkk {noh {nnl 90-(>-; |
  1
):-+:' {rn {nmj {nkj |
  1
:336/,:r<*-): {rn nqhjooooooiihklj rlqlfgofiomihgjkmkl:roof riqlnjlofjgnhjolfhm o rn o lqilkfnfolfnkmohhi o o n V V |
  1
<0:;8: {rn {hm {nll {nln {nki 90-(>-; {ig {rn |
  1
):-+:' {rn {nki {nkh |
  1
,+->687+r<*-): {rn lqkffffffghjommmgl rlqlfgofiomihgjkmkl:roof rknqooooooofmkllfnj o o n V V |
  1
/061+ {rn lqkffffffghjommmgl rlqlfgofiomihgjkmkl:roof rlhqkimmokhljmnnlml |
  1
<0:;8: {rn {nkg {hi {hg {nnf -:):-,:; {nnh {rn |
  1
<0:;8: {rn {hi {nkg {go {nmm -:):-,:; {nnh {rn |
  1
300/ {rn {rn {nkg {nmg |
  1
,+->687+r<*-): {rn rnqmkfhhhnhoikmnnf:roog oqghkfffffiionfolfh rfqmkllfmojolnifgln:roog o n o V V |
  1
:;8: {rn {nkk {hf {nnj {nkf 90-(>-; |
  1
/061+ {rn rnqmkfhhhnhoikmnnf:roog rlqlfgofiomihgjkmkl:roof rfqmkllfmologhjhgli:roog |
  1
<0:;8: {rn {gn {go {njo {njn -:):-,:; {gm {rn |
  1
:;8: {rn {gl {njm {nni {njl 90-(>-; |
  1
/061+ {rn rnqmkfhhhnhoikmnnf:roog lqkfffffffiionfok rfqmkllfmologhjhgli:roog |
  1
<0:;8: {rn {njo {noh {gk {nmj 90-(>-; {noi {rn |
  1
:;8: {rn {nof {nmi {gk {njk 90-(>-; |
  1
):-+:' {rn {nmj {njj |
  1
:336/,:r<*-): {rn nqhjooooooiihklj lqkfffffffiionfok riqlnjlofjgnhjolfhm o n o rlqilkfnfolfnkmohhi o o n V V |
  1
9><: {rn {ik {nnh {m {rn {nji 90-(>-; ,6183: |
  1
300/ {rn {kf {njh {gi |
  1
,/7:-:r,*-9><: {rn nqhjooooooiihklj nqhkffffffiionfok riqlnjlofjgnhjolfhm kqolkmkjkjghofkngl o o rn o n o 90-(>-;@) V V V V |
  1
<0:;8: {rn {fo {gf {nnn {nki -:):-,:; {fn {rn |
  1
:336/,:r<*-): {rn nqhkffffflhgmimjkh rlqlfgofiomihgjkmkl:roof rliqogmmoihkgkmnmoh o rn o lqjhfmkonollfmghhg o o n V V |
  1
<0:;8: {rn {nnn {fg {fj {nlk 90-(>-; {ig {rn |
  1
:;8: {rn {noo {nlj {nll {njg 90-(>-; |
  1
):-+:' {rn {nki {njf |
  1
:336/,:r<*-): {rn nqhkffffflhgmimjkh lqkfffffffiionfok rliqogmmoihkgkmnmoh o n o rlqjhfmkonollfmghhg o o n V V |
  1
:336/,:r<*-): {rn lqkffffffghjommmgl nqhkffffffiionfok rlkqmhimhigkfklkmk n o o o lqilkfnfokfognonh o n V V |
  1
/061+ {rn lqkffffffghjommmgl lqkfffffffiionfok rlhqkimmokhljmnnlml |
  1
9><: {rn {nio {nin {m {rn {nim 90-(>-; ,6183: |
  1
300/ {rn {fn {nil {nom |
  1
,/7:-:r,*-9><: {rn nqhkffffflhgmimjkh nqhkffffffiionfok rliqogmmoihkgkmnmoh lqfgknjnoiinmgghjf o o rn o n o 90-(>-;@) V V V V |
  1
<0:;8: {rn {nkm {nkm {nik {nij 90-(>-; {nol {rn |
  1
<0:;8: {rn {noh {njo {nkg {nii 90-(>-; {noi {rn |
  1
):-+:' {rn {nii {nih |
  1
/061+ {rn lqkffffffghjommmgl rlqlfgofiomihgjkmkl:roof rfqjonmlhkiihngfnhk |
  1
:;8: {rn {nlj {nnm {nln {nig 90-(>-; |
  1
/061+ {rn lqkffffffghjommmgl rlqlfgofiomihgjkmkl:roof rlmqfjffjkkmflimnoh |
  1
<0:;8: {rn {nni {nnj {nkl {nii -:):-,:; {nnh {rn |
  1
,+->687+r<*-): {rn nqolhkjlmlimknolhi rlqlfgofiomihgjkmkl:roof rfqmkllfmoohlilnmh:roog rn o rnqmmkioiljlgmmlhhl:roni V V |
  1
<0:;8: {rn {nkl {nmk {nmn {njn 90-(>-; {noi {rn |
  1
:;8: {rn {nmi {njm {njo {njg 90-(>-; |
  1
):-+:' {rn {nii {nif |
  1
,+->687+r<*-): {rn nqfnmkjlmlimknolgj lqkfffffffiionfok rfqmkllfmomigfifjgg:roog n o nqmmkioiljlgmmlhhl:roni V V |
  1
:336/,:r<*-): {rn lqkffffffghjommmgl nqhkffffffiionfok riqlnjlofjgnhjolfhm n o o o lqilkfnfokglhmlmhf o n V V |
  1
/061+ {rn lqkffffffghjommmgl lqkfffffffiionfok rfqjonmlhkiihngfnhk |
  1
/3>1:r,*-9><: {rn oqlmkfoikgkfhfgkfjl nqhkffffffiionfok rfqmkllfmokillgnjh:roog rnqmmkioiljlgmmlhhl:roni o n o n o 90-(>-;@) V V V V |
  1
<0:;8: {rn {njh {njh {nho {nhn 90-(>-; {nmf {rn |
  1
,+->687+r<*-): {rn lqkffffffghjommmgl lqkfffffffiionfok rknqooooooofmkllfnj o o n V V |
  1
/061+ {rn lqkffffffghjommmgl lqkfffffffiionfok rlmqfjffjkkmflimnoh |
  1
9><: {rn {nhm {nhl {m {rn {nhk 90-(>-; ,6183: |
  1
300/ {rn {nhj {nhi {nlf |
  1
<01:r,*-9><: {rn nqhkfffffghjommmfm nqhkffffffiionfok rnnqhhoikoiifffmnih jqlnoffohgfgonhhlj:roni o n rnqkgjgkmnjijkilgkk o hqgfnmfkoogjnhojmf:roni n V V oqgfnkiinfigfngmffl oqkjloghmoffmihinkk nqkgjgkmnjijkilgkk 90-(>-; V V V V |
  1
<0:;8: {rn {nil {nil {nhh {nhg -:):-,:; {nko {rn |
  1
<0:;8: {rn {nik {nik {nkm {nij -:):-,:; {nhf {rn |
  1
:;8: {rn {ngo {ngo {nkm {ngn 90-(>-; |
  1
:;8: {rn {njm {nkk {nkg {ngm 90-(>-; |
  1
/061+ {rn lqkffffffghjommmgl rlqlfgofiomihgjkmkl:roof rfqmkllfmoofkkjnhmk:roog |
  1
:336/,:r<*-): {rn lqkffffffghjommmgl nqhkffffffiionfok rliqogmmoihkgkmnmoh n o o o lqjhfmkoohfnokhhlg o n V V |
  1
/061+ {rn lqkffffffghjommmgl lqkfffffffiionfok rfqmkllfmoofkkjnhmk:roog |
  1
<0:;8: {rn {nho {nho {njh {nhn -:):-,:; {ngl {rn |
  1
:;8: {rn {ngk {ngk {njh {ngj 90-(>-; |
  1
9><: {rn {ngi {ngh {m {rn {ngg 90-(>-; ,6183: |
  1
300/ {rn {ngf {nfo {nio |
  1
+0-*,r,*-9><: {rn nqhkfffffghjommmfm nqhkffffffiionfok rnnqjimikkolllnflgl rnqmmkioiljlgmmlhhl:roni o n nqjnimhloglkjmgkkg oqnhnihfhhkokhnjmki o n o 90-(>-;@) V V V V |
  1
300/ {rn {rn {nfn {nlf |
  1
<0:;8: {rn {nhi {nhi {nfm {nfl -:):-,:; {nin {rn |
  1
<0:;8: {rn {nhh {nhh {nil {nhg 90-(>-; {nfk {rn |
  1
:;8: {rn {nfj {nfj {nhh {nfi 90-(>-; |
  1
300/ {rn {nfh {nik {nfg |
  1
):-+:' {rn {nij {nff |
  1
:336/,:r<*-): {rn nqhkfffffghjommlmh nqhkffffffiionfok rlgqnjflklmfjhhminj jqlnoffohgfgonhhlj:roni o n rnqofkokljhholnikfj o jqgnokjjlinmjighhn:roni n V V |
  1
,+->687+r<*-): {rn lqkffffffghjommmhg oqghkfffffiionfolfh rfqmkllfmngkffggnn:roog o rn o V V |
  1
300/ {rn {moo {nho {mon |
  1
):-+:' {rn {nhn {mom |
  1
:336/,:r<*-): {rn nqhkfffffghjommmfm nqhkffffffiionfok rnoqommhfnoiglniojl jqlnoffohgfgonhhlj:roni o n rnqjfojogkgmmgmgoii o gqkkhnhjfoojojjgmg:roni n V V |
  1
9><: {rn {mol {mok {m {rn {moj 90-(>-; ,6183: |
  1
300/ {rn {moi {moh {nhm |
  1
+0-*,r,*-9><: {rn nqhkfffffghjommmfm nqhkffffffiionfok rnnqlflnhghllkihnij rnqmmkioiljlgmmlhhl:roni o n nqiojfijhkijikknok roqomnlohmoiiinnmkkji o n o 90-(>-;@) V V V V |
  1
300/ {rn {rn {nfm {nio |
  1
<0:;8: {rn {nfo {nfo {mog {mof -:):-,:; {nhl {rn |
  1
<0:;8: {rn {nfn {nfn {mno {mnn 90-(>-; {nhj {rn |
  1
<0:;8: {rn {nfm {nfm {nhi {nfl 90-(>-; {ngf {rn |
  1
:;8: {rn {mnm {mnm {nfm {mnl 90-(>-; |
  1
300/ {rn {rn {nhh {mnk |
  1
):-+:' {rn {nhg {mnj |
  1
:336/,:r<*-): {rn nqhkfffffghjommlng nqhkffffffiionfok rlmqliijhniffkffkih jqlnoffohgfgonhhlj:roni o n rnqklhggjgmjhgnij o hqilijfglhhjnmginm:roni n V V |
  1
300/ {rn {rn {mni {nfg |
  1
9><: {rn {mnk {nhf {m {rn {mnh 90-(>-; ,6183: |
  1
/061+ {rn oqijjfjiknokhojgljn nqhkffffffiionfok rlgqnjflklmfjhhminj |
  1
300/ {rn {rn {mng {mon |
  1
9><: {rn {mnf {ngl {m {rn {mmo 90-(>-; ,6183: |
  1
/061+ {rn oqnjfkfnjojmnfkmmhf nqhkffffffiionfok rnoqommhfnoiglniojl |
  1
9><: {rn {mmn {mmm {m {rn {mml 90-(>-; ,6183: |
  1
300/ {rn {mmk {mmj {ngi |
  1
+0-*,r,*-9><: {rn nqhkfffffghjommmfm nqhkffffffiionfok rnnqojkmkgnllhimhmg rnqmmkioiljlgmmlhhl:roni o n nqoffhomlnhkhjjnml oqjggmjojkoomkkgjng o n o 90-(>-;@) V V V V |
  1
300/ {rn {rn {mog {nhm |
  1
<0:;8: {rn {moh {moh {mmi {mmh -:):-,:; {ngh {rn |
  1
<0:;8: {rn {mog {mog {nfo {mof 90-(>-; {moi {rn |
  1
:;8: {rn {mmg {mmg {mog {mmf 90-(>-; |
  1
<0:;8: {rn {mlo {mln {nfn {mnn -:):-,:; {mlm {mll |
  1
:;8: {rn {mlk {mlk {nfn {mlj 90-(>-; |
  1
):-+:' {rn {nfl {mli |
  1
:336/,:r<*-): {rn nqhkfffffghjommmfm nqhkffffffiionfok rnnqhnhkkkoiiglgmll jqlnoffohgfgonhhlj:roni o n rnqjfojogkgmmgmgoii o gqkkhnhjfoojojjgmg:roni n V V |
  1
9><: {rn {mlh {mlg {m {rn {mlf 90-(>-; ,6183: |
  1
/061+ {rn oqlnmnnkninhmojgmok nqhkffffffiionfok rlmqliijhniffkffkih |
  1
<0:;8: {rn {mni {mni {mko {mkn 90-(>-; {nfh {rn |
  1
+0-*,r,*-9><: {rn nqhkfffffghjommlmh nqhkffffffiionfok rlfqjgjokiklokfjgfl rnqmmkioiljlgmmlhhl:roni o n roqlmongnilhiohoijfh mqoognkgffkffoogfh o n o 90-(>-;@) V V V V |
  1
<0:;8: {rn {mng {mng {mkm {mkl 90-(>-; {moo {rn |
  1
9><: {rn {nfg {mkk {m {rn {mkj 90-(>-; ,6183: |
  1
+0-*,r,*-9><: {rn nqhkfffffghjommmfm nqhkffffffiionfok rnoqolhkjillkikfkng rnqmmkioiljlgmmlhhl:roni o n nqiojfijhkijikknok roqomnlohmoiiinnmkkji o n o 90-(>-;@) V V V V |
  1
9><: {rn {mki {mkh {m {rn {mkg 90-(>-; ,6183: |
  1
300/ {rn {mkf {mjo {mol |
  1
+0-*,r,*-9><: {rn nqhkfffffghjommmfm nqhkffffffiionfok rnoqhnjlnhjlkojgmf rnqmmkioiljlgmmlhhl:roni o n nqiojfijhkijikknok roqomnlohmoiiinnmkkji o n o 90-(>-;@) V V V V |
  1
300/ {rn {rn {mmi {ngi |
  1
<0:;8: {rn {mmj {mmj {mjn {mjm -:):-,:; {mok {rn |
  1
<0:;8: {rn {mmi {mmi {moh {mmh 90-(>-; {mmk {rn |
  1
:;8: {rn {mjl {mjl {mmi {mjk 90-(>-; |
  1
):-+:' {rn {mof {mjj |
  1
:336/,:r<*-): {rn nqhkfffffghjommmfm nqhkffffffiionfok rnnqkohgklfffgoojlm jqlnoffohgfgonhhlj:roni o n rnqjfojogkgmmgmgohl o gqkkhnhjfoojojjgig:roni n V V |
  1
<0:;8: {rn {mji {mno {mln {mjh -:):-,:; {mlm {mjg |
  1
<0:;8: {rn {mno {mji {mlo {mjh 90-(>-; {mlm {mjf |
  1
300/ {rn {rn {mln {mio |
  1
/<*-): {rn o -:):-,:; $ :'//< 1*=, n /:-60;6< m 
  1
 o n iqmglngjlohnhfiook n 
  1
 rngqmkooimgifjfimll o 
  1
 rngqmkooimgifjfimll iqmglngjlohnhfiook 
  1
 o 
  1
 ,/361: 90-(>-; $ -0+,*- 
  1
 61+<*-): -:):-,:; $ :'><+<*- 1*=, l 0/:1 j 
  1
 o l oqngikfonhngglmhngj n oqkgmolklnhkifkfhhi n nqnogkomgmogljnhnh n ngqmkooimgifjfimll l 
  1
 oqlnmnnkninhmojgnnj nqhkffffffiionfok rmfqfjloooglgnjkfhg 
  1
 oqmjoiokinnjoiikfgn nqhkffffffiionfok rmfqfmfonhojiifkggf 
  1
 oqofninijllnhimkkil nqhkffffffiionfok rmfqgihomkkgmfgiokl 
  1
 oqojohoiflnighgnolhj nqhkffffffiionfok rmfqkkggkilhhjjnimm 
  1
 oqnhnjhiifikokffjgk nqhkffffffiionfok rmlqiigfkiofljkhgn 
  1
 oqmhnfhnoonmookkjhn nqhkffffffiionfok rnhqikooijofjkknknj 
  1
 oqliggmknjiifmmigof nqhkffffffiionfok rnnqgmlglhmhlnkinon 
  1
 o 
  1
 1*33@,*-9><: 
  1
 1*33@,*-9><: 
  1
 1*33=, 
  1
 1*33=, 
  1
 V V 
  1
 o 
  1
 o 
  1
 l oqngikfonhngglmhngj oqkgmolklnhkifkfhhi nqnogkomgmogljnhnh 
  1
 Y n Y o " V V 
  1
 nqhkfffffghjommmgl nqhkffffffiionfok rfqmkllfmmoiklhmngf:roog rnqmmkioiljlgmmlhhl:roni o n 
  1
 Y rngqmkooimgifjfimll Y o Y o Y iqmglngjlohnhfiook o 
  1
 o 
  1
 l rnqnogkomgmogljnhnh roqkgmolklnhkifkfhhi roqngikfonhngglmhngj 
  1
 o 
  1
 o 
  1
 o 
  1
 " V V V V 
  1
 " o o |
  1
):-+:' {rn {mjh {min |
  1
:336/,:r<*-): {rn nqhkfffffghjommlon nqhkffffffiionfok rnnqgmlglhmhlnkinon jqlnoffohgfgonhhlj:roni o n rnqlgnnhjglogoffim o hqlljknmnnijmgjmn:roni n V V |
  1
/061+ {rn oqnjfkfnjojmnfkmmhf nqhkffffffiionfok rnnqhnhkkkoiiglgmll |
  1
9><: {rn {mim {mil {m {rn {mik 90-(>-; ,6183: |
  1
300/ {rn {nfk {mij {mnk |
  1
+0-*,r,*-9><: {rn nqhkfffffghjommlng nqhkffffffiionfok rlmqljomnkgijnmffmg rnqmmkioiljlgmmlhhl:roni o n nqkjjnmionnmjggfjh roqomlhikgfoinlhmigm o n o 90-(>-;@) V V V V |
  1
<0:;8: {rn {mko {mko {mni {mkn -:):-,:; {mkk {rn |
  1
:;8: {rn {mii {mii {mni {mih 90-(>-; |
  1
<0:;8: {rn {mkm {mkm {mng {mkl -:):-,:; {mig {rn |
  1
:;8: {rn {mif {mif {mng {mho 90-(>-; |
  1
300/ {rn {rn {mko {mnf |
  1
/3>1:r,*-9><: {rn nqnfhioohnjolmflki nqhkffffffiionfok rknqooooooofmkllfmm nqmmkioiljlgmmlhhl:roni o rn o rn o 90-(>-;@) V V V V |
  1
9><: {rn {mhn {mhm {m {rn {mhl 90-(>-; ,6183: |
  1
300/ {rn {mhk {mhj {mmn |
  1
+0-*,r,*-9><: {rn nqhkfffffghjommmfm nqhkffffffiionfok rnoqjkjgjmmlkmoiohl rnqmmkioiljlgmmlhhl:roni o n nqjnimhloglkjmgkkg oqnhnihfhhkokhnjmki o n o 90-(>-;@) V V V V |
  1
300/ {rn {rn {mjn {mol |
  1
<0:;8: {rn {mjo {mjo {mhi {mhh -:):-,:; {mmm {rn |
  1
<0:;8: {rn {mjn {mjn {mmj {mjm 90-(>-; {mkf {rn |
  1
:;8: {rn {mhg {mhg {mjn {mhf 90-(>-; |
  1
):-+:' {rn {mmh {mgo |
  1
:336/,:r<*-): {rn nqhkfffffghjommmfm nqhkffffffiionfok rnnqlhgjnlkihnllg jqlnoffohgfgonhhkk:roni o n rnqjfojogkgmmgmgohn o gqkkhnhjfoojojjgig:roni n V V |
  1
/061+ {rn oqnjfkfnjojmnfkmmhf nqhkffffffiionfok rnnqkohgklfffgoojlm |
  1
<0:;8: {rn {mln {mlo {mgn {mgm 90-(>-; {mlm {mgl |
  1
:;8: {rn {mgk {mlk {mln {mgj 90-(>-; |
  1
/<*-): {rn o -:):-,:; $ :'//< 1*=, n 0/:1 m 
  1
 o n ngqmkooimgifjfimll n 
  1
 o o 
  1
 rngqmkooimgifjfimll o 
  1
 o 
  1
 ,/361: 90-(>-; $ -:9 n " V V V V 
  1
 " o o |
  1
/<*-): {rn o 90-(>-; $ :'//< 1*=, n 0/:1 m 
  1
 o n ngqmkooimgifjfimll n 
  1
 o iqmglngjlohnhfiook 
  1
 rngqmkooimgifjfimll iqmglngjlohnhfiook 
  1
 o 
  1
 ,/361: 90-(>-; $ -:9 n " V V V V 
  1
 " o o |
  1
9><: {rn {rn {mlm {m {rn {mgi 90-(>-; ,6183: |
  1
/061+ {rn oqliggmknjiifmmigof nqhkffffffiionfok rnnqgmlglhmhlnkinon |
  1
9><: {rn {mgh {mgg {m {rn {mgf 90-(>-; ,6183: |
  1
300/ {rn {mfo {mfn {mlh |
  1
+0-*,r,*-9><: {rn nqhkfffffghjommlng nqhkffffffiionfok rlmqofhjgigmfijfmmg rnqmmkioiljlgmmlhhl:roni o n nqlijnklokjkgifkfg oqmkhmnjigomlikhmmg o n o 90-(>-;@) V V V V |
  1
<0:;8: {rn {mij {mij {mfm {mfl -:):-,:; {mlg {rn |
  1
):-+:' {rn {mkn {mfk |
  1
:336/,:r<*-): {rn nqhkfffffghjommlli nqhkffffffiionfok rknqooooooofmkllfmm jqlnoffohgfgonhhlj:roni o n rnqnokhfgjkkflgjfhn o jqgihjhkgfihjjmgfk:roni n V V |
  1
300/ {rn {mfj {mkm {mhn |
  1
):-+:' {rn {mkl {mfi |
  1
:336/,:r<*-): {rn nqhkfffffghjommmfm nqhkffffffiionfok rnoqojmnmnioofgmhgj jqlnoffohgfgonhhkk:roni o n rnqjfojogkgmmgmgohn o gqkkhnhjfoojojjgig:roni n V V |
  1
9><: {rn {mon {mig {m {rn {mfh 90-(>-; ,6183: |
  1
300/ {rn {mfg {mff {mki |
  1
+0-*,r,*-9><: {rn nqhkfffffghjommmfm nqhkffffffiionfok rnoqlhilgiflkljlgjl rnqmmkioiljlgmmlhhl:roni o n nqiojfijhkijikknok roqomnlohmoiiinnmkkji o n o 90-(>-;@) V V V V |
  1
300/ {rn {rn {mhi {mmn |
  1
<0:;8: {rn {mhj {mhj {loo {lon -:):-,:; {mkh {rn |
  1
<0:;8: {rn {mhi {mhi {mjo {mhh 90-(>-; {mhk {rn |
  1
:;8: {rn {lom {lom {mhi {lol 90-(>-; |
  1
):-+:' {rn {mjm {lok |
  1
:336/,:r<*-): {rn nqhkfffffghjommmfm nqhkffffffiionfok rnoqhmffgmgoolfnijj jqlnoffohgfgonhhlj:roni o n rnqjfojogkgmmgmgoii o gqkkhnhjfoojojjgmg:roni n V V |
  1
/061+ {rn oqnjfkfnjojmnfkmmhf nqhkffffffiionfok rnnqlhgjnlkihnllg |
  1
<0:;8: {rn {mgn {mgn {mji {mgm -:):-,:; {loj {rn |
  1
:;8: {rn {mgk {mgk {mji {loi 90-(>-; |
  1
/<*-): {rn o 90-(>-; $ :'//< 1*=, n /:-60;6< m 
  1
 o n iqmglngjlohnhfiook n 
  1
 o o 
  1
 o iqmglngjlohnhfiook 
  1
 o 
  1
 ,/361: 90-(>-; $ -:9 n " V V V V 
  1
 " o o |
  1
):-+:' {rn {mjh {loh |
  1
61+<*-):r<*-): {rn 90-(>-; $ -:9 m " V V |
  1
,/361:r,*-9><: {rn 90-(>-; $ -:9 n " V V V V |
  1
9><: {rn {log {lof {m {rn {lno 90-(>-; ,6183: |
  1
300/ {rn {lnn {lnm {mim |
  1
+0-*,r,*-9><: {rn nqhkfffffghjommlng nqhkffffffiionfok rlnqgkkfjghfknggjkl rnqmmkioiljlgmmlhhl:roni o n nqkjjnmionnmjggfjh roqomlhikgfoinlhmigm o n o 90-(>-;@) V V V V |
  1
300/ {rn {rn {mfm {mlh |
  1
<0:;8: {rn {mfn {mfn {lnl {lnk -:):-,:; {mil {rn |
  1
<0:;8: {rn {mfm {mfm {mij {mfl 90-(>-; {mfo {rn |
  1
:;8: {rn {lnj {lnj {mfm {lni 90-(>-; |
  1
/061+ {rn oqikjmonkkmjililjij nqhkffffffiionfok rknqooooooofmkllfmm |
  1
300/ {rn {rn {lnh {mhn |
  1
/061+ {rn oqnjfkfnjojmnfkmmhf nqhkffffffiionfok rnoqojmnmnioofgmhgj |
  1
+0-*,r,*-9><: {rn nqhkfffffghjommmfm nqhkffffffiionfok rnoqmoifmnilkjonili rnqmmkioiljlgmmlhhl:roni o n nqjnimhloglkjmgkkg oqnhnihfhhkokhnjmki o n o 90-(>-;@) V V V V |
  1
300/ {rn {rn {loo {mki |
  1
<0:;8: {rn {mff {mff {lnh {lng -:):-,:; {mhm {rn |
  1
<0:;8: {rn {loo {loo {mhj {lon 90-(>-; {mfg {rn |
  1
:;8: {rn {lnf {lnf {loo {lmo 90-(>-; |
  1
):-+:' {rn {mhh {lmn |
  1
:336/,:r<*-): {rn nqhkfffffghjommmfm nqhkffffffiionfok rnoqhooijmmihhmkfmj jqlnoffohgfgonhhlj:roni o n rnqjfojogkgmmgmgoii o gqkkhnhjfoojojjgmg:roni n V V |
  1
/061+ {rn oqnjfkfnjojmnfkmmhf nqhkffffffiionfok rnoqhmffgmgoolfnijj |
  1
300/ {rn {lmm {mgn {lml |
  1
:336/,:r<*-): {rn nqhkfffffghjommlng nqhkffffffiionfok rmfqfjloooglgnjkfhg jqlnoffohgfgonhhlj:roni o n rnqklhggjgmjhgnijol o hqilijfglhhjnmgimm:roni n V V |
  1
/061+ {rn oqlnmnnkninhmojgnnj nqhkffffffiionfok rmfqfjloooglgnjkfhg |
  1
9><: {rn {lmk {lmj {m {rn {lmi 90-(>-; ,6183: |
  1
300/ {rn {lmh {lmg {mgh |
  1
+0-*,r,*-9><: {rn nqhkfffffghjommlng nqhkffffffiionfok rlnqnjfhgimiggmhmnf rnqmmkioiljlgmmlhhl:roni o n oqmklmnffinmmogifji nqlifnlghikjomjjog o n o 90-(>-;@) V V V V |
  1
300/ {rn {rn {lnl {mim |
  1
<0:;8: {rn {lnm {lnm {lmf {llo -:):-,:; {mgg {rn |
  1
<0:;8: {rn {lnl {lnl {mfn {lnk 90-(>-; {lnn {rn |
  1
:;8: {rn {lln {lln {lnl {llm 90-(>-; |
  1
):-+:' {rn {mfl {lll |
  1
:336/,:r<*-): {rn nqhkfffffghjommlng nqhkffffffiionfok rlmqlllgjgolohiolgf jqlnoffohgfgonhhlj:roni o n rnqklhggjgmjhgnijoh o hqilijfglhhjnmgikn:roni n V V |
  1
<0:;8: {rn {lnh {lnh {mff {lng 90-(>-; {mfj {rn |
  1
:;8: {rn {llk {llk {lnh {llj 90-(>-; |
  1
):-+:' {rn {lon {lli |
  1
:336/,:r<*-): {rn nqhkfffffghjommmfm nqhkffffffiionfok rnoqlfnojmmooighmmm jqlnoffohgfgonhhlj:roni o n rnqjfojogkgmmgmgoii o gqkkhnhjfoojojjgmg:roni n V V |
  1
/061+ {rn oqnjfkfnjojmnfkmmhf nqhkffffffiionfok rnoqhooijmmihhmkfmj |
  1
300/ {rn {rn {llh {lml |
  1
9><: {rn {mio {loj {m {rn {llg 90-(>-; ,6183: |
  1
9><: {rn {lml {llf {m {rn {lko 90-(>-; ,6183: |
  1
300/ {rn {lkn {lkm {log |
  1
+0-*,r,*-9><: {rn nqhkfffffghjommlng nqhkffffffiionfok rloqkhkinlhklkijgfg rnqmmkioiljlgmmlhhl:roni o n nqkjjnmionnmjggfjn roqomlhikgfoinlhmigm o n o 90-(>-;@) V V V V |
  1
300/ {rn {rn {lmf {mgh |
  1
<0:;8: {rn {lmg {lmg {lkl {lkk -:):-,:; {lof {rn |
  1
<0:;8: {rn {lmf {lmf {lnm {llo 90-(>-; {lmh {rn |
  1
:;8: {rn {lkj {lkj {lmf {lki 90-(>-; |
  1
):-+:' {rn {lnk {lkh |
  1
:336/,:r<*-): {rn nqhkfffffghjommlng nqhkffffffiionfok rlnqginlnjimgjjgogj jqlnoffohgfgonhhlj:roni o n rnqklhggjgmjhgnijhi o hqilijfglhhjnmfooi:roni n V V |
  1
/061+ {rn oqlnmnnkninhmojgnnj nqhkffffffiionfok rlmqlllgjgolohiolgf |
  1
):-+:' {rn {lng {lkg |
  1
:336/,:r<*-): {rn nqhkfffffghjommmfm nqhkffffffiionfok rnoqlinhmniigomokgg jqlnoffohgfgonhhlj:roni o n rnqjfojogkgmmgmgoii o gqkkhnhjfoojojjgmg:roni n V V |
  1
/061+ {rn oqnjfkfnjojmnfkmmhf nqhkffffffiionfok rnoqlfnojmmooighmmm |
  1
<0:;8: {rn {llh {llh {lkf {ljo 90-(>-; {lmm {rn |
  1
+0-*,r,*-9><: {rn nqhkfffffghjommlng nqhkffffffiionfok rmfqfifljhihmjmkjnh rnqmmkioiljlgmmlhhl:roni o n nqkjjnmionnmjggfjj roqomlhikgfoinlhmigm o n o 90-(>-;@) V V V V |
  1
300/ {rn {ljn {lkf {lmk |
  1
+0-*,r,*-9><: {rn nqhkfffffghjommlng nqhkffffffiionfok rloqmmnfgjhohffjmoi rnqmmkioiljlgmmlhhl:roni o n nqlijnklokjkgifkkf oqmkhmnjigomlikhnkh o n o 90-(>-;@) V V V V |
  1
300/ {rn {rn {lkl {log |
  1
<0:;8: {rn {lkm {lkm {ljm {ljl -:):-,:; {lmj {rn |
  1
<0:;8: {rn {lkl {lkl {lmg {lkk 90-(>-; {lkn {rn |
  1
:;8: {rn {ljk {ljk {lkl {ljj 90-(>-; |
  1
):-+:' {rn {llo {lji |
  1
:336/,:r<*-): {rn nqhkfffffghjommlng nqhkffffffiionfok rlnqgmgionfjfgnf jqlnoffohgfgonhhlj:roni o n rnqklhggjgmjhgnijoh o hqilijfglhhjnmgikn:roni n V V |
  1
/061+ {rn oqlnmnnkninhmojhkoj nqhkffffffiionfok rlnqginlnjimgjjgogj |
  1
/061+ {rn oqnjfkfnjojmnfkmmhf nqhkffffffiionfok rnoqlinhmniigomokgg |
  1
<0:;8: {rn {lkf {lkf {llh {ljo -:):-,:; {llf {rn |
  1
:;8: {rn {ljh {ljh {llh {ljg 90-(>-; |
  1
300/ {rn {rn {ljm {lmk |
  1
<0:;8: {rn {ljm {ljm {lkm {ljl 90-(>-; {ljn {rn |
  1
:;8: {rn {ljf {ljf {ljm {lio 90-(>-; |
  1
):-+:' {rn {lkk {lin |
  1
:336/,:r<*-): {rn nqhkfffffghjommlng nqhkffffffiionfok rloqkfofhojhhgljklh jqlnoffohgfgonhhlj:roni o n rnqklhggjgmjhgnikfk o hqilijfglhhjnmgjhm:roni n V V |
  1
/061+ {rn oqlnmnnkninhmojgnnj nqhkffffffiionfok rlnqgmgionfjfgnf |
  1
):-+:' {rn {ljo {lim |
  1
:336/,:r<*-): {rn nqhkfffffghjommlng nqhkffffffiionfok rmfqfgjhnkjoigfkoim jqlnoffohgfgonhhlj:roni o n rnqklhggjgmjhgnijjn o hqilijfglhhjnmgghg:roni n V V |
  1
):-+:' {rn {ljl {lil |
  1
:336/,:r<*-): {rn nqhkfffffghjommlng nqhkffffffiionfok rloqkjgmjifofofilji jqlnoffohgfgonhhlj:roni o n rnqklhggjgmjhgnij o hqilijfglhhjnmginm:roni n V V |
  1
/061+ {rn oqlnmnnkninhmojgmfl nqhkffffffiionfok rloqkfofhojhhgljklh |
  1
/061+ {rn oqlnmnnkninhmojhihn nqhkffffffiionfok rmfqfgjhnkjoigfkoim |
  1
/061+ {rn oqlnmnnkninhmojgmok nqhkffffffiionfok rloqkjgmjifofofilji |
  0
ENDBLK
  5
59D
330
59A
100
AcDbEntity
  8
0
100
AcDbBlockEnd
  0
BLOCK
  5
840
330
83F
100
AcDbEntity
  8
ASHADE
100
AcDbBlockBegin
  2
AVE_GLOBAL
 70
     0
 10
0.0
 20
0.0
 30
0.0
  3
AVE_GLOBAL
  1
AVE_GLOBAL
  0
ENDBLK
  5
841
330
83F
100
AcDbEntity
  8
0
100
AcDbBlockEnd
  0
BLOCK
  5
849
330
848
100
AcDbEntity
  8
ASHADE
100
AcDbBlockBegin
  2
AVE_RENDER
 70
     0
 10
0.0
 20
0.0
 30
0.0
  3
AVE_RENDER
  1
AVE_RENDER
  0
ENDBLK
  5
84A
330
848
100
AcDbEntity
  8
0
100
AcDbBlockEnd
  0
BLOCK
  5
AAC
330
AAB
100
AcDbEntity
  8
ASHADE
100
AcDbBlockBegin
  2
RM_SDB
 70
     2
 10
0.0
 20
0.0
 30
0.0
  3
RM_SDB
  1
RM_SDB
  0
ATTDEF
  5
AAD
330
AAB
100
AcDbEntity
  8
0
100
AcDbText
 10
0.0
 20
0.0
 30
0.0
 40
0.2
  1

100
AcDbAttributeDefinition
  3

  2
NAME
 70
     1
  0
ATTDEF
  5
AAE
330
AAB
100
AcDbEntity
  8
0
100
AcDbText
 10
0.0
 20
0.0
 30
0.0
 40
0.2
  1

100
AcDbAttributeDefinition
  3

  2
ACADCOLOR
 70
     1
  0
ATTDEF
  5
AAF
330
AAB
100
AcDbEntity
  8
0
100
AcDbText
 10
0.0
 20
0.0
 30
0.0
 40
0.2
  1

100
AcDbAttributeDefinition
  3

  2
COLOR
 70
     1
  0
ATTDEF
  5
AB0
330
AAB
100
AcDbEntity
  8
0
100
AcDbText
 10
0.0
 20
0.0
 30
0.0
 40
0.2
  1

100
AcDbAttributeDefinition
  3

  2
OPACITY
 70
     1
  0
ATTDEF
  5
AB1
330
AAB
100
AcDbEntity
  8
0
100
AcDbText
 10
0.0
 20
0.0
 30
0.0
 40
0.2
  1

100
AcDbAttributeDefinition
  3

  2
SURFACE
 70
     1
  0
ATTDEF
  5
AB2
330
AAB
100
AcDbEntity
  8
0
100
AcDbText
 10
0.0
 20
0.0
 30
0.0
 40
0.2
  1

100
AcDbAttributeDefinition
  3

  2
SURF1
 70
     1
  0
ATTDEF
  5
AB3
330
AAB
100
AcDbEntity
  8
0
100
AcDbText
 10
0.0
 20
0.0
 30
0.0
 40
0.2
  1

100
AcDbAttributeDefinition
  3

  2
SURF2
 70
     1
  0
ATTDEF
  5
AB4
330
AAB
100
AcDbEntity
  8
0
100
AcDbText
 10
0.0
 20
0.0
 30
0.0
 40
0.2
  1

100
AcDbAttributeDefinition
  3

  2
SURF3
 70
     1
  0
ATTDEF
  5
AB5
330
AAB
100
AcDbEntity
  8
0
100
AcDbText
 10
0.0
 20
0.0
 30
0.0
 40
0.2
  1

100
AcDbAttributeDefinition
  3

  2
SURF4
 70
     1
  0
ATTDEF
  5
AB6
330
AAB
100
AcDbEntity
  8
0
100
AcDbText
 10
0.0
 20
0.0
 30
0.0
 40
0.2
  1

100
AcDbAttributeDefinition
  3

  2
SHADINGRATE
 70
     1
  0
ATTDEF
  5
AB7
330
AAB
100
AcDbEntity
  8
0
100
AcDbText
 10
0.0
 20
0.0
 30
0.0
 40
0.2
  1

100
AcDbAttributeDefinition
  3

  2
DISPLACEMENT
 70
     1
  0
ATTDEF
  5
AB8
330
AAB
100
AcDbEntity
  8
0
100
AcDbText
 10
0.0
 20
0.0
 30
0.0
 40
0.2
  1

100
AcDbAttributeDefinition
  3

  2
DISP1
 70
     1
  0
ATTDEF
  5
AB9
330
AAB
100
AcDbEntity
  8
0
100
AcDbText
 10
0.0
 20
0.0
 30
0.0
 40
0.2
  1

100
AcDbAttributeDefinition
  3

  2
DISP2
 70
     1
  0
ATTDEF
  5
ABA
330
AAB
100
AcDbEntity
  8
0
100
AcDbText
 10
0.0
 20
0.0
 30
0.0
 40
0.2
  1

100
AcDbAttributeDefinition
  3

  2
DISP3
 70
     1
  0
ATTDEF
  5
ABB
330
AAB
100
AcDbEntity
  8
0
100
AcDbText
 10
0.0
 20
0.0
 30
0.0
 40
0.2
  1

100
AcDbAttributeDefinition
  3

  2
DISP4
 70
     1
  0
ATTDEF
  5
ABC
330
AAB
100
AcDbEntity
  8
0
100
AcDbText
 10
0.0
 20
0.0
 30
0.0
 40
0.2
  1

100
AcDbAttributeDefinition
  3

  2
DBOUND
 70
     1
  0
ATTDEF
  5
ABD
330
AAB
100
AcDbEntity
  8
0
100
AcDbText
 10
0.0
 20
0.0
 30
0.0
 40
0.2
  1

100
AcDbAttributeDefinition
  3

  2
SMOOTH
 70
     1
  0
ATTDEF
  5
ABE
330
AAB
100
AcDbEntity
  8
0
100
AcDbText
 10
0.0
 20
0.0
 30
0.0
 40
0.2
  1

100
AcDbAttributeDefinition
  3

  2
ATMOSHPERE
 70
     1
  0
ATTDEF
  5
ABF
330
AAB
100
AcDbEntity
  8
0
100
AcDbText
 10
0.0
 20
0.0
 30
0.0
 40
0.2
  1

100
AcDbAttributeDefinition
  3

  2
ATMO1
 70
     1
  0
ATTDEF
  5
AC0
330
AAB
100
AcDbEntity
  8
0
100
AcDbText
 10
0.0
 20
0.0
 30
0.0
 40
0.2
  1

100
AcDbAttributeDefinition
  3

  2
ATMO2
 70
     1
  0
ATTDEF
  5
AC1
330
AAB
100
AcDbEntity
  8
0
100
AcDbText
 10
0.0
 20
0.0
 30
0.0
 40
0.2
  1

100
AcDbAttributeDefinition
  3

  2
ATMO3
 70
     1
  0
ATTDEF
  5
AC2
330
AAB
100
AcDbEntity
  8
0
100
AcDbText
 10
0.0
 20
0.0
 30
0.0
 40
0.2
  1

100
AcDbAttributeDefinition
  3

  2
ATMO4
 70
     1
  0
ATTDEF
  5
AC3
330
AAB
100
AcDbEntity
  8
0
100
AcDbText
 10
0.0
 20
0.0
 30
0.0
 40
0.2
  1

100
AcDbAttributeDefinition
  3

  2
TCCORD
 70
     1
  0
ENDBLK
  5
AC4
330
AAB
100
AcDbEntity
  8
0
100
AcDbBlockEnd
  0
ENDSEC
  0
SECTION
  2
ENTITIES
  0
INSERT
  5
842
330
1F
100
AcDbEntity
  8
ASHADE
 62
     1
100
AcDbBlockReference
  2
AVE_GLOBAL
 10
0.0
 20
0.0
 30
0.0
1001
AVE_MATERIAL
1002
{
1000
*GLOBAL*
1000
2
1000
Global finish.
1002
{
1002
}
1002
{
1070
    63
1002
{
1002
{
1010
-1.0
1020
-1.0
1030
-1.0
1002
}
1040
0.6999999880790711
1000

1040
0.0
1002
{
1002
}
1040
0.0
1002
{
1002
}
1040
0.0
1002
}
1002
{
1002
{
1010
-1.0
1020
-1.0
1030
-1.0
1002
}
1040
1.0
1000

1040
0.0
1002
{
1002
}
1040
0.0
1002
{
1002
}
1040
0.0
1002
}
1002
{
1002
{
1010
-1.0
1020
-1.0
1030
-1.0
1002
}
1040
0.2000000029802322
1000

1040
0.0
1002
{
1002
}
1040
0.0
1002
{
1002
}
1040
0.0
1002
}
1002
{
1070
     0
1002
{
1070
     1
1002
{
1040
1.0
1040
1.0
1000

1040
0.0
1002
{
1002
}
1040
0.0
1002
{
1002
}
1040
0.0
1002
}
1002
}
1040
1.0
1040
0.0
1040
0.0
1002
}
1002
{
1040
1.0
1040
1.0
1000

1040
0.0
1002
{
1002
}
1040
0.0
1002
{
1002
}
1040
0.0
1002
}
1002
{
1040
0.5
1040
1.0
1000

1040
0.0
1002
{
1002
}
1040
0.0
1002
{
1002
}
1040
0.0
1002
}
1002
{
1070
     0
1040
0.0
1002
{
1002
}
1040
1.0
1002
{
1002
}
1040
0.0
1002
}
1002
{
1040
0.0
1002
{
1002
{
1010
0.0
1020
0.0
1030
0.0
1002
}
1040
1.0
1000

1040
0.0
1002
{
1002
}
1040
0.0
1002
{
1002
}
1040
0.0
1002
}
1002
}
1002
{
1002
{
1070
     1
1002
{
1040
0.0
1040
1.0
1000

1040
0.0
1002
{
1002
}
1040
0.0
1002
{
1002
}
1040
0.0
1002
}
1002
}
1040
0.0
1002
{
1002
}
1010
1.0
1020
0.0
1030
0.0
1010
0.0
1020
1.0
1030
0.0
1010
0.0
1020
0.0
1030
1.0
1070
     0
1002
}
1002
{
1002
{
1040
1.0
1040
1.0
1002
{
1070
     1
1002
{
1040
1.0
1040
1.0
1000

1040
0.0
1002
{
1002
}
1040
0.0
1002
{
1002
}
1040
0.0
1002
}
1002
}
1002
}
1070
     0
1040
0.0
1002
{
1002
}
1002
}
1002
{
1002
}
1002
}
1002
{
1071
        3
1070
     3
1070
     0
1002
{
1070
     2
1070
     0
1070
     0
1040
0.0
1002
}
1070
     0
1070
     2
1002
{
1002
}
1002
}
1002
{
1040
8030.0
1040
190.3000030517578
1040
0.3050000071525574
1040
228.0
1040
545.0
1040
14.0
1040
17.39999961853027
1040
0.4560000002384186
1002
}
1000

1002
}
  0
INSERT
  5
84B
330
1F
100
AcDbEntity
  8
ASHADE
 62
     1
100
AcDbBlockReference
  2
AVE_RENDER
 10
0.0
 20
0.0
 30
0.0
1001
AVE_RENDER
1002
{
1070
     7
1000
Pref
1070
    50
1070
    20
1070
     1
1070
     0
1000

1070
    10
1070
     1
1070
    10
1040
1.0
1070
     1
1040
0.6999999880790711
1040
1.0
1040
0.2000000029802322
1040
2.0
1010
-1.0
1020
-1.0
1030
-1.0
1040
0.3000000119209289
1070
    49
1070
     0
1070
     0
1010
1.0
1020
1.0
1030
1.0
1040
45.0
1070
     1
1070
     0
1000
WCS
1040
0.0
1070
     0
1040
10.0
1002
}
  0
INSERT
  5
84C
330
1F
100
AcDbEntity
  8
ASHADE
 62
     3
100
AcDbBlockReference
  2
AVE_RENDER
 10
0.0
 20
0.0
 30
0.0
1001
AVE_RENDER
1002
{
1070
     0
1000
Full Opt
1070
     0
1070
     1
1070
     1
1070
     1
1070
     0
1070
     0
1070
     0
1070
     1
1070
     1
1040
0.0001
1040
0.0001
1002
}
  0
INSERT
  5
84D
330
1F
100
AcDbEntity
  8
ASHADE
 62
     4
100
AcDbBlockReference
  2
AVE_RENDER
 10
0.0
 20
0.0
 30
0.0
1001
AVE_RENDER
1002
{
1070
     0
1000
Quick Opt
1070
     0
1070
     1
1070
     1
1070
     1
1070
     0
1070
     0
1070
     1
1002
}
  0
INSERT
  5
84E
330
1F
100
AcDbEntity
  8
ASHADE
 62
     5
100
AcDbBlockReference
  2
AVE_RENDER
 10
0.0
 20
0.0
 30
0.0
1001
AVE_RENDER
1002
{
1070
     1
1000
Scanl Opt
1070
     2
1070
     0
1070
     2
1040
2.0
1040
4.0
1070
     0
1070
     1
1070
     0
1040
0.03
1002
}
  0
INSERT
  5
84F
330
1F
100
AcDbEntity
  8
ASHADE
 62
     6
100
AcDbBlockReference
  2
AVE_RENDER
 10
0.0
 20
0.0
 30
0.0
1001
AVE_RENDER
1002
{
1070
     2
1000
Raytr Opt
1070
     2
1070
     0
1070
     2
1040
2.0
1040
4.0
1070
     0
1070
     1
1070
     1
1040
0.03
1070
     3
1040
0.03
1002
}
  0
INSERT
  5
850
330
1F
100
AcDbEntity
  8
ASHADE
 62
     7
100
AcDbBlockReference
  2
AVE_RENDER
 10
0.0
 20
0.0
 30
0.0
1001
AVE_RENDER
1002
{
1070
     0
1000
RFile Opt
1070
     1
1070
   640
1070
   480
1070
 10000
1070
     1
1070
     8
1070
     8
1070
     0
1070
     0
1070
     0
1070
     0
1070
     0
1070
     0
1070
     0
1002
}
  0
INSERT
  5
851
330
1F
100
AcDbEntity
  8
ASHADE
 62
     8
100
AcDbBlockReference
  2
AVE_RENDER
 10
0.0
 20
0.0
 30
0.0
1001
AVE_RENDER
1002
{
1070
     0
1000
Fog Opt
1070
     0
1070
     0
1040
0.0
1040
1.0
1040
0.0
1040
1.0
1010
0.5
1020
0.5
1030
0.5
1002
}
  0
INSERT
  5
852
330
1F
100
AcDbEntity
  8
ASHADE
 62
     9
100
AcDbBlockReference
  2
AVE_RENDER
 10
0.0
 20
0.0
 30
0.0
1001
AVE_RENDER
1002
{
1070
     0
1000
BG Opt
1070
     0
1070
     0
1010
0.0
1020
0.0
1030
0.0
1010
1.0
1020
0.0
1030
0.0
1010
0.0
1020
1.0
1030
0.0
1010
0.0
1020
0.0
1030
1.0
1040
0.5
1040
0.5
1040
0.0
1000

1070
     1
1000

1070
     1
1070
     1
1040
1.0
1040
1.0
1040
0.0
1040
0.0
1070
     0
1002
}
  0
POLYLINE
  5
D75
330
1F
100
AcDbEntity
  8
0
 62
     7
100
AcDbPolyFaceMesh
 66
     1
 10
0.0
 20
0.0
 30
0.0
 70
    64
 71
   199
 72
   394
1001
AVE_ENTITY_MATERIAL
1002
{
1000

1002
{
1071
        0
1070
     0
1070
     0
1002
{
1070
     0
1070
     0
1070
     0
1040
0.0
1002
}
1070
     0
1070
     0
1002
{
1002
}
1002
}
1002
{
1002
}
1002
{
1002
}
1011
-9.629227616205005
1021
0.0
1031
14.18748473281887
1011
-8.629227616205005
1021
0.0
1031
14.18748473281887
1011
-9.629227616205005
1021
1.0
1031
14.18748473281887
1011
-9.629227616205005
1021
0.0
1031
15.18748473281887
1002
}
  0
VERTEX
  5
D76
330
D75
100
AcDbEntity
  8
0
 62
     7
100
AcDbVertex
100
AcDbPolyFaceMeshVertex
 10
0.0000000220396217
 20
4.451071739196777
 30
-0.0000000083920639
 70
   192
  0
VERTEX
  5
D77
330
D75
100
AcDbEntity
  8
0
 62
     7
100
AcDbVertex
100
AcDbPolyFaceMeshVertex
 10
0.2704515677549555
 20
4.451071739196777
 30
7.460774413299832
 70
   192
  0
VERTEX
  5
D78
330
D75
100
AcDbEntity
  8
0
 62
     7
100
AcDbVertex
100
AcDbPolyFaceMeshVertex
 10
2.000000022039625
 20
4.451071739196777
 30
-0.0000000083920639
 70
   192
  0
VERTEX
  5
D79
330
D75
100
AcDbEntity
  8
0
 62
     7
100
AcDbVertex
100
AcDbPolyFaceMeshVertex
 10
0.3125000220396217
 20
4.451071739196777
 30
9.281249514770781
 70
   192
  0
VERTEX
  5
D7A
330
D75
100
AcDbEntity
  8
0
 62
     7
100
AcDbVertex
100
AcDbPolyFaceMeshVertex
 10
1.750000022039625
 20
4.451071739196777
 30
9.999999514770781
 70
   192
  0
VERTEX
  5
D7B
330
D75
100
AcDbEntity
  8
0
 62
     7
100
AcDbVertex
100
AcDbPolyFaceMeshVertex
 10
1.687500022039625
 20
4.451071739196777
 30
9.281249514770781
 70
   192
  0
VERTEX
  5
D7C
330
D75
100
AcDbEntity
  8
0
 62
     7
100
AcDbVertex
100
AcDbPolyFaceMeshVertex
 10
0.2500000220396217
 20
4.451071739196777
 30
9.999999514770781
 70
   192
  0
VERTEX
  5
D7D
330
D75
100
AcDbEntity
  8
0
 62
     7
100
AcDbVertex
100
AcDbPolyFaceMeshVertex
 10
1.750000022039625
 20
4.451071739196777
 30
9.437499514770781
 70
   192
  0
VERTEX
  5
D7E
330
D75
100
AcDbEntity
  8
0
 62
     7
100
AcDbVertex
100
AcDbPolyFaceMeshVertex
 10
0.3125000220396217
 20
4.451071739196777
 30
8.218749514770781
 70
   192
  0
VERTEX
  5
D7F
330
D75
100
AcDbEntity
  8
0
 62
     7
100
AcDbVertex
100
AcDbPolyFaceMeshVertex
 10
0.2704515677549555
 20
4.451071739196777
 30
7.476724616241727
 70
   192
  0
VERTEX
  5
D80
330
D75
100
AcDbEntity
  8
0
 62
     7
100
AcDbVertex
100
AcDbPolyFaceMeshVertex
 10
0.2500000220396217
 20
4.451071739196777
 30
8.062499514770781
 70
   192
  0
VERTEX
  5
D81
330
D75
100
AcDbEntity
  8
0
 62
     7
100
AcDbVertex
100
AcDbPolyFaceMeshVertex
 10
0.2500000220396217
 20
4.451071739196777
 30
8.187499514770781
 70
   192
  0
VERTEX
  5
D82
330
D75
100
AcDbEntity
  8
0
 62
     7
100
AcDbVertex
100
AcDbPolyFaceMeshVertex
 10
0.135252974615307
 20
4.451071739196777
 30
7.583662024688992
 70
   192
  0
VERTEX
  5
D83
330
D75
100
AcDbEntity
  8
0
 62
     7
100
AcDbVertex
100
AcDbPolyFaceMeshVertex
 10
0.135252974615307
 20
4.451071739196777
 30
7.978837481689724
 70
   192
  0
VERTEX
  5
D84
330
D75
100
AcDbEntity
  8
0
 62
     7
100
AcDbVertex
100
AcDbPolyFaceMeshVertex
 10
0.2500000220396217
 20
4.451071739196777
 30
7.49999951477078
 70
   192
  0
VERTEX
  5
D85
330
D75
100
AcDbEntity
  8
0
 62
     7
100
AcDbVertex
100
AcDbPolyFaceMeshVertex
 10
0.0708885413267328
 20
4.451071739196777
 30
7.852253428650174
 70
   192
  0
VERTEX
  5
D86
330
D75
100
AcDbEntity
  8
0
 62
     7
100
AcDbVertex
100
AcDbPolyFaceMeshVertex
 10
0.0708885413267328
 20
4.451071739196777
 30
7.710245600891385
 70
   192
  0
VERTEX
  5
D87
330
D75
100
AcDbEntity
  8
0
 62
     7
100
AcDbVertex
100
AcDbPolyFaceMeshVertex
 10
0.2630768042661877
 20
4.451071739196777
 30
7.490867606354032
 70
   192
  0
VERTEX
  5
D88
330
D75
100
AcDbEntity
  8
0
 62
     7
100
AcDbVertex
100
AcDbPolyFaceMeshVertex
 10
1.687500022039625
 20
4.451071739196777
 30
8.218749514770781
 70
   192
  0
VERTEX
  5
D89
330
D75
100
AcDbEntity
  8
0
 62
     7
100
AcDbVertex
100
AcDbPolyFaceMeshVertex
 10
0.2630768042661877
 20
4.451071739196777
 30
7.446631423187527
 70
   192
  0
VERTEX
  5
D8A
330
D75
100
AcDbEntity
  8
0
 62
     7
100
AcDbVertex
100
AcDbPolyFaceMeshVertex
 10
0.2500000220396217
 20
4.451071739196777
 30
7.43749951477078
 70
   192
  0
VERTEX
  5
D8B
330
D75
100
AcDbEntity
  8
0
 62
     7
100
AcDbVertex
100
AcDbPolyFaceMeshVertex
 10
0.1664362174131586
 20
4.451071739196777
 30
7.396295062256131
 70
   192
  0
VERTEX
  5
D8C
330
D75
100
AcDbEntity
  8
0
 62
     7
100
AcDbVertex
100
AcDbPolyFaceMeshVertex
 10
0.0831022482969477
 20
4.451071739196777
 30
7.354628077698026
 70
   192
  0
VERTEX
  5
D8D
330
D75
100
AcDbEntity
  8
0
 62
     7
100
AcDbVertex
100
AcDbPolyFaceMeshVertex
 10
0.0000000220396217
 20
4.451071739196777
 30
7.31249951477078
 70
   192
  0
VERTEX
  5
D8E
330
D75
100
AcDbEntity
  8
0
 62
     7
100
AcDbVertex
100
AcDbPolyFaceMeshVertex
 10
1.729549429998602
 20
4.451071739196777
 30
7.460774413299832
 70
   192
  0
VERTEX
  5
D8F
330
D75
100
AcDbEntity
  8
0
 62
     7
100
AcDbVertex
100
AcDbPolyFaceMeshVertex
 10
1.729549429998602
 20
4.451071739196777
 30
7.476724616241727
 70
   192
  0
VERTEX
  5
D90
330
D75
100
AcDbEntity
  8
0
 62
     7
100
AcDbVertex
100
AcDbPolyFaceMeshVertex
 10
1.916897795782293
 20
4.451071739196777
 30
7.354628077698026
 70
   192
  0
VERTEX
  5
D91
330
D75
100
AcDbEntity
  8
0
 62
     7
100
AcDbVertex
100
AcDbPolyFaceMeshVertex
 10
2.000000022039625
 20
4.451071739196777
 30
7.31249951477078
 70
   192
  0
VERTEX
  5
D92
330
D75
100
AcDbEntity
  8
0
 62
     7
100
AcDbVertex
100
AcDbPolyFaceMeshVertex
 10
1.833563826666082
 20
4.451071739196777
 30
7.396295062256131
 70
   192
  0
VERTEX
  5
D93
330
D75
100
AcDbEntity
  8
0
 62
     7
100
AcDbVertex
100
AcDbPolyFaceMeshVertex
 10
1.750000022039625
 20
4.451071739196777
 30
7.43749951477078
 70
   192
  0
VERTEX
  5
D94
330
D75
100
AcDbEntity
  8
0
 62
     7
100
AcDbVertex
100
AcDbPolyFaceMeshVertex
 10
1.736923239813055
 20
4.451071739196777
 30
7.446631423187527
 70
   192
  0
VERTEX
  5
D95
330
D75
100
AcDbEntity
  8
0
 62
     7
100
AcDbVertex
100
AcDbPolyFaceMeshVertex
 10
1.750000022039625
 20
4.451071739196777
 30
8.062499514770781
 70
   192
  0
VERTEX
  5
D96
330
D75
100
AcDbEntity
  8
0
 62
     7
100
AcDbVertex
100
AcDbPolyFaceMeshVertex
 10
1.736923239813055
 20
4.451071739196777
 30
7.490867606354032
 70
   192
  0
VERTEX
  5
D97
330
D75
100
AcDbEntity
  8
0
 62
     7
100
AcDbVertex
100
AcDbPolyFaceMeshVertex
 10
1.750000022039625
 20
4.451071739196777
 30
7.49999951477078
 70
   192
  0
VERTEX
  5
D98
330
D75
100
AcDbEntity
  8
0
 62
     7
100
AcDbVertex
100
AcDbPolyFaceMeshVertex
 10
1.864747069463934
 20
4.451071739196777
 30
7.583662024688992
 70
   192
  0
VERTEX
  5
D99
330
D75
100
AcDbEntity
  8
0
 62
     7
100
AcDbVertex
100
AcDbPolyFaceMeshVertex
 10
1.929111502752514
 20
4.451071739196777
 30
7.710245600891385
 70
   192
  0
VERTEX
  5
D9A
330
D75
100
AcDbEntity
  8
0
 62
     7
100
AcDbVertex
100
AcDbPolyFaceMeshVertex
 10
1.864747069463934
 20
4.451071739196777
 30
7.978837481689724
 70
   192
  0
VERTEX
  5
D9B
330
D75
100
AcDbEntity
  8
0
 62
     7
100
AcDbVertex
100
AcDbPolyFaceMeshVertex
 10
1.929111502752514
 20
4.451071739196777
 30
7.852253428650174
 70
   192
  0
VERTEX
  5
D9C
330
D75
100
AcDbEntity
  8
0
 62
     7
100
AcDbVertex
100
AcDbPolyFaceMeshVertex
 10
1.750000022039625
 20
4.451071739196777
 30
8.187499514770781
 70
   192
  0
VERTEX
  5
D9D
330
D75
100
AcDbEntity
  8
0
 62
     7
100
AcDbVertex
100
AcDbPolyFaceMeshVertex
 10
1.750000022039625
 20
4.451071739196777
 30
9.312499514770781
 70
   192
  0
VERTEX
  5
D9E
330
D75
100
AcDbEntity
  8
0
 62
     7
100
AcDbVertex
100
AcDbPolyFaceMeshVertex
 10
1.864747069463934
 20
4.451071739196777
 30
9.521162024688994
 70
   192
  0
VERTEX
  5
D9F
330
D75
100
AcDbEntity
  8
0
 62
     7
100
AcDbVertex
100
AcDbPolyFaceMeshVertex
 10
1.929111502752514
 20
4.451071739196777
 30
9.647745600891385
 70
   192
  0
VERTEX
  5
DA0
330
D75
100
AcDbEntity
  8
0
 62
     7
100
AcDbVertex
100
AcDbPolyFaceMeshVertex
 10
1.864747069463934
 20
4.451071739196777
 30
9.916337481689726
 70
   192
  0
VERTEX
  5
DA1
330
D75
100
AcDbEntity
  8
0
 62
     7
100
AcDbVertex
100
AcDbPolyFaceMeshVertex
 10
1.929111502752514
 20
4.451071739196777
 30
9.789753428650174
 70
   192
  0
VERTEX
  5
DA2
330
D75
100
AcDbEntity
  8
0
 62
     7
100
AcDbVertex
100
AcDbPolyFaceMeshVertex
 10
0.2500000220396217
 20
4.451071739196777
 30
9.437499514770781
 70
   192
  0
VERTEX
  5
DA3
330
D75
100
AcDbEntity
  8
0
 62
     7
100
AcDbVertex
100
AcDbPolyFaceMeshVertex
 10
0.2500000220396217
 20
4.451071739196777
 30
9.312499514770781
 70
   192
  0
VERTEX
  5
DA4
330
D75
100
AcDbEntity
  8
0
 62
     7
100
AcDbVertex
100
AcDbPolyFaceMeshVertex
 10
0.135252974615307
 20
4.451071739196777
 30
9.916337481689726
 70
   192
  0
VERTEX
  5
DA5
330
D75
100
AcDbEntity
  8
0
 62
     7
100
AcDbVertex
100
AcDbPolyFaceMeshVertex
 10
0.0708885413267328
 20
4.451071739196777
 30
9.789753428650174
 70
   192
  0
VERTEX
  5
DA6
330
D75
100
AcDbEntity
  8
0
 62
     7
100
AcDbVertex
100
AcDbPolyFaceMeshVertex
 10
0.135252974615307
 20
4.451071739196777
 30
9.521162024688994
 70
   192
  0
VERTEX
  5
DA7
330
D75
100
AcDbEntity
  8
0
 62
     7
100
AcDbVertex
100
AcDbPolyFaceMeshVertex
 10
0.0708885413267328
 20
4.451071739196777
 30
9.647745600891385
 70
   192
  0
VERTEX
  5
DA8
330
D75
100
AcDbEntity
  8
0
 62
     7
100
AcDbVertex
100
AcDbPolyFaceMeshVertex
 10
1.890142462835514
 20
4.342988967895506
 30
9.871093264770781
 70
   192
  0
VERTEX
  5
DA9
330
D75
100
AcDbEntity
  8
0
 62
     7
100
AcDbVertex
100
AcDbPolyFaceMeshVertex
 10
1.890142462835514
 20
4.342988967895506
 30
9.566405764770781
 70
   192
  0
VERTEX
  5
DAA
330
D75
100
AcDbEntity
  8
0
 62
     7
100
AcDbVertex
100
AcDbPolyFaceMeshVertex
 10
1.649518988714422
 20
4.076071739196776
 30
9.437499514770781
 70
   192
  0
VERTEX
  5
DAB
330
D75
100
AcDbEntity
  8
0
 62
     7
100
AcDbVertex
100
AcDbPolyFaceMeshVertex
 10
1.646170638189524
 20
4.005052566528319
 30
9.454882613373076
 70
   192
  0
VERTEX
  5
DAC
330
D75
100
AcDbEntity
  8
0
 62
     7
100
AcDbVertex
100
AcDbPolyFaceMeshVertex
 10
1.375000022039625
 20
3.801553010940551
 30
9.437499514770781
 70
   192
  0
VERTEX
  5
DAD
330
D75
100
AcDbEntity
  8
0
 62
     7
100
AcDbVertex
100
AcDbPolyFaceMeshVertex
 10
1.737953208074774
 20
3.941699981689453
 30
9.871093264770781
 70
   192
  0
VERTEX
  5
DAE
330
D75
100
AcDbEntity
  8
0
 62
     7
100
AcDbVertex
100
AcDbPolyFaceMeshVertex
 10
1.771547339544504
 20
3.918511152267456
 30
9.718749514770781
 70
   192
  0
VERTEX
  5
DAF
330
D75
100
AcDbEntity
  8
0
 62
     7
100
AcDbVertex
100
AcDbPolyFaceMeshVertex
 10
1.435678504095282
 20
3.620956897735595
 30
9.718749514770781
 70
   192
  0
VERTEX
  5
DB0
330
D75
100
AcDbEntity
  8
0
 62
     7
100
AcDbVertex
100
AcDbPolyFaceMeshVertex
 10
1.416708014593334
 20
3.657101631164549
 30
9.566405764770781
 70
   192
  0
VERTEX
  5
DB1
330
D75
100
AcDbEntity
  8
0
 62
     7
100
AcDbVertex
100
AcDbPolyFaceMeshVertex
 10
1.737953208074774
 20
3.941699981689453
 30
9.566405764770781
 70
   192
  0
VERTEX
  5
DB2
330
D75
100
AcDbEntity
  8
0
 62
     7
100
AcDbVertex
100
AcDbPolyFaceMeshVertex
 10
1.375000022039625
 20
3.801553010940551
 30
9.999999514770781
 70
   192
  0
VERTEX
  5
DB3
330
D75
100
AcDbEntity
  8
0
 62
     7
100
AcDbVertex
100
AcDbPolyFaceMeshVertex
 10
1.646170638189524
 20
4.005052566528319
 30
9.982616893005644
 70
   192
  0
VERTEX
  5
DB4
330
D75
100
AcDbEntity
  8
0
 62
     7
100
AcDbVertex
100
AcDbPolyFaceMeshVertex
 10
1.649518988714422
 20
4.076071739196776
 30
9.999999514770781
 70
   192
  0
VERTEX
  5
DB5
330
D75
100
AcDbEntity
  8
0
 62
     7
100
AcDbVertex
100
AcDbPolyFaceMeshVertex
 10
1.364880583868234
 20
3.755850553512573
 30
9.982616893005644
 70
   192
  0
VERTEX
  5
DB6
330
D75
100
AcDbEntity
  8
0
 62
     7
100
AcDbVertex
100
AcDbPolyFaceMeshVertex
 10
1.416708014593334
 20
3.657101631164549
 30
9.871093264770781
 70
   192
  0
VERTEX
  5
DB7
330
D75
100
AcDbEntity
  8
0
 62
     7
100
AcDbVertex
100
AcDbPolyFaceMeshVertex
 10
1.000000022039625
 20
3.554392337799071
 30
9.871093264770781
 70
   192
  0
VERTEX
  5
DB8
330
D75
100
AcDbEntity
  8
0
 62
     7
100
AcDbVertex
100
AcDbPolyFaceMeshVertex
 10
1.000000022039625
 20
3.554392337799071
 30
9.566405764770781
 70
   192
  0
VERTEX
  5
DB9
330
D75
100
AcDbEntity
  8
0
 62
     7
100
AcDbVertex
100
AcDbPolyFaceMeshVertex
 10
1.000000022039625
 20
3.665915727615356
 30
9.982616893005644
 70
   192
  0
VERTEX
  5
DBA
330
D75
100
AcDbEntity
  8
0
 62
     7
100
AcDbVertex
100
AcDbPolyFaceMeshVertex
 10
0.5832920294859143
 20
3.657101631164549
 30
9.871093264770781
 70
   192
  0
VERTEX
  5
DBB
330
D75
100
AcDbEntity
  8
0
 62
     7
100
AcDbVertex
100
AcDbPolyFaceMeshVertex
 10
0.3504810553648188
 20
4.076071739196776
 30
9.437499514770781
 70
   192
  0
VERTEX
  5
DBC
330
D75
100
AcDbEntity
  8
0
 62
     7
100
AcDbVertex
100
AcDbPolyFaceMeshVertex
 10
0.2205686789610102
 20
4.356431961059569
 30
9.454882613373076
 70
   192
  0
VERTEX
  5
DBD
330
D75
100
AcDbEntity
  8
0
 62
     7
100
AcDbVertex
100
AcDbPolyFaceMeshVertex
 10
0.2205686789610102
 20
4.356431961059569
 30
9.982616893005644
 70
   192
  0
VERTEX
  5
DBE
330
D75
100
AcDbEntity
  8
0
 62
     7
100
AcDbVertex
100
AcDbPolyFaceMeshVertex
 10
0.2620477896787818
 20
3.941699981689453
 30
9.871093264770781
 70
   192
  0
VERTEX
  5
DBF
330
D75
100
AcDbEntity
  8
0
 62
     7
100
AcDbVertex
100
AcDbPolyFaceMeshVertex
 10
0.2284527045347406
 20
3.918511152267456
 30
9.718749514770781
 70
   192
  0
VERTEX
  5
DC0
330
D75
100
AcDbEntity
  8
0
 62
     7
100
AcDbVertex
100
AcDbPolyFaceMeshVertex
 10
0.0693359595396217
 20
4.338068962097167
 30
9.718749514770781
 70
   192
  0
VERTEX
  5
DC1
330
D75
100
AcDbEntity
  8
0
 62
     7
100
AcDbVertex
100
AcDbPolyFaceMeshVertex
 10
0.5643224936582741
 20
3.620956897735595
 30
9.718749514770781
 70
   192
  0
VERTEX
  5
DC2
330
D75
100
AcDbEntity
  8
0
 62
     7
100
AcDbVertex
100
AcDbPolyFaceMeshVertex
 10
0.2620477896787818
 20
3.941699981689453
 30
9.566405764770781
 70
   192
  0
VERTEX
  5
DC3
330
D75
100
AcDbEntity
  8
0
 62
     7
100
AcDbVertex
100
AcDbPolyFaceMeshVertex
 10
1.000000022039625
 20
3.513571977615356
 30
9.718749514770781
 70
   192
  0
VERTEX
  5
DC4
330
D75
100
AcDbEntity
  8
0
 62
     7
100
AcDbVertex
100
AcDbPolyFaceMeshVertex
 10
1.000000022039625
 20
3.665915727615356
 30
9.454882613373076
 70
   192
  0
VERTEX
  5
DC5
330
D75
100
AcDbEntity
  8
0
 62
     7
100
AcDbVertex
100
AcDbPolyFaceMeshVertex
 10
0.6351194602110049
 20
3.755850553512573
 30
9.454882613373076
 70
   192
  0
VERTEX
  5
DC6
330
D75
100
AcDbEntity
  8
0
 62
     7
100
AcDbVertex
100
AcDbPolyFaceMeshVertex
 10
0.5832920294859143
 20
3.657101631164549
 30
9.566405764770781
 70
   192
  0
VERTEX
  5
DC7
330
D75
100
AcDbEntity
  8
0
 62
     7
100
AcDbVertex
100
AcDbPolyFaceMeshVertex
 10
1.000000022039625
 20
3.701071977615356
 30
9.999999514770781
 70
   192
  0
VERTEX
  5
DC8
330
D75
100
AcDbEntity
  8
0
 62
     7
100
AcDbVertex
100
AcDbPolyFaceMeshVertex
 10
1.000000022039625
 20
3.701071977615356
 30
9.437499514770781
 70
   192
  0
VERTEX
  5
DC9
330
D75
100
AcDbEntity
  8
0
 62
     7
100
AcDbVertex
100
AcDbPolyFaceMeshVertex
 10
0.6250000220396253
 20
3.801553010940551
 30
9.437499514770781
 70
   192
  0
VERTEX
  5
DCA
330
D75
100
AcDbEntity
  8
0
 62
     7
100
AcDbVertex
100
AcDbPolyFaceMeshVertex
 10
0.6351194602110049
 20
3.755850553512573
 30
9.982616893005644
 70
   192
  0
VERTEX
  5
DCB
330
D75
100
AcDbEntity
  8
0
 62
     7
100
AcDbVertex
100
AcDbPolyFaceMeshVertex
 10
0.3538294058897211
 20
4.005052566528319
 30
9.982616893005644
 70
   192
  0
VERTEX
  5
DCC
330
D75
100
AcDbEntity
  8
0
 62
     7
100
AcDbVertex
100
AcDbPolyFaceMeshVertex
 10
0.6250000220396253
 20
3.801553010940551
 30
9.999999514770781
 70
   192
  0
VERTEX
  5
DCD
330
D75
100
AcDbEntity
  8
0
 62
     7
100
AcDbVertex
100
AcDbPolyFaceMeshVertex
 10
1.779431365118234
 20
4.356431961059569
 30
9.982616893005644
 70
   192
  0
VERTEX
  5
DCE
330
D75
100
AcDbEntity
  8
0
 62
     7
100
AcDbVertex
100
AcDbPolyFaceMeshVertex
 10
1.930665038213934
 20
4.338068962097167
 30
9.718749514770781
 70
   192
  0
VERTEX
  5
DCF
330
D75
100
AcDbEntity
  8
0
 62
     7
100
AcDbVertex
100
AcDbPolyFaceMeshVertex
 10
1.779431365118234
 20
4.356431961059569
 30
9.454882613373076
 70
   192
  0
VERTEX
  5
DD0
330
D75
100
AcDbEntity
  8
0
 62
     7
100
AcDbVertex
100
AcDbPolyFaceMeshVertex
 10
1.364880583868234
 20
3.755850553512573
 30
9.454882613373076
 70
   192
  0
VERTEX
  5
DD1
330
D75
100
AcDbEntity
  8
0
 62
     7
100
AcDbVertex
100
AcDbPolyFaceMeshVertex
 10
0.3538294058897211
 20
4.005052566528319
 30
9.454882613373076
 70
   192
  0
VERTEX
  5
DD2
330
D75
100
AcDbEntity
  8
0
 62
     7
100
AcDbVertex
100
AcDbPolyFaceMeshVertex
 10
0.1098585349180414
 20
4.342988967895506
 30
9.566405764770781
 70
   192
  0
VERTEX
  5
DD3
330
D75
100
AcDbEntity
  8
0
 62
     7
100
AcDbVertex
100
AcDbPolyFaceMeshVertex
 10
0.1098585349180414
 20
4.342988967895506
 30
9.871093264770781
 70
   192
  0
VERTEX
  5
DD4
330
D75
100
AcDbEntity
  8
0
 62
     7
100
AcDbVertex
100
AcDbPolyFaceMeshVertex
 10
0.3504810553648188
 20
4.076071739196776
 30
9.999999514770781
 70
   192
  0
VERTEX
  5
DD5
330
D75
100
AcDbEntity
  8
0
 62
     7
100
AcDbVertex
100
AcDbPolyFaceMeshVertex
 10
0.6250000220396253
 20
3.801553010940551
 30
9.312499514770781
 70
   192
  0
VERTEX
  5
DD6
330
D75
100
AcDbEntity
  8
0
 62
     7
100
AcDbVertex
100
AcDbPolyFaceMeshVertex
 10
0.3504810553648188
 20
4.076071739196776
 30
9.312499514770781
 70
   192
  0
VERTEX
  5
DD7
330
D75
100
AcDbEntity
  8
0
 62
     7
100
AcDbVertex
100
AcDbPolyFaceMeshVertex
 10
1.375000022039625
 20
3.801553010940551
 30
9.312499514770781
 70
   192
  0
VERTEX
  5
DD8
330
D75
100
AcDbEntity
  8
0
 62
     7
100
AcDbVertex
100
AcDbPolyFaceMeshVertex
 10
1.000000022039625
 20
3.701071977615356
 30
9.312499514770781
 70
   192
  0
VERTEX
  5
DD9
330
D75
100
AcDbEntity
  8
0
 62
     7
100
AcDbVertex
100
AcDbPolyFaceMeshVertex
 10
1.649518988714422
 20
4.076071739196776
 30
9.312499514770781
 70
   192
  0
VERTEX
  5
DDA
330
D75
100
AcDbEntity
  8
0
 62
     7
100
AcDbVertex
100
AcDbPolyFaceMeshVertex
 10
0.6562500220396253
 20
3.855679512023924
 30
9.281249514770781
 70
   192
  0
VERTEX
  5
DDB
330
D75
100
AcDbEntity
  8
0
 62
     7
100
AcDbVertex
100
AcDbPolyFaceMeshVertex
 10
0.4046077948667737
 20
4.107321739196776
 30
9.281249514770781
 70
   192
  0
VERTEX
  5
DDC
330
D75
100
AcDbEntity
  8
0
 62
     7
100
AcDbVertex
100
AcDbPolyFaceMeshVertex
 10
1.343750022039625
 20
3.855679512023924
 30
9.281249514770781
 70
   192
  0
VERTEX
  5
DDD
330
D75
100
AcDbEntity
  8
0
 62
     7
100
AcDbVertex
100
AcDbPolyFaceMeshVertex
 10
1.000000022039625
 20
3.763571977615356
 30
9.281249514770781
 70
   192
  0
VERTEX
  5
DDE
330
D75
100
AcDbEntity
  8
0
 62
     7
100
AcDbVertex
100
AcDbPolyFaceMeshVertex
 10
1.595392249212475
 20
4.107321739196776
 30
9.281249514770781
 70
   192
  0
VERTEX
  5
DDF
330
D75
100
AcDbEntity
  8
0
 62
     7
100
AcDbVertex
100
AcDbPolyFaceMeshVertex
 10
0.6562500220396253
 20
3.855679512023924
 30
8.218749514770781
 70
   192
  0
VERTEX
  5
DE0
330
D75
100
AcDbEntity
  8
0
 62
     7
100
AcDbVertex
100
AcDbPolyFaceMeshVertex
 10
0.4046077948667737
 20
4.107321739196776
 30
8.218749514770781
 70
   192
  0
VERTEX
  5
DE1
330
D75
100
AcDbEntity
  8
0
 62
     7
100
AcDbVertex
100
AcDbPolyFaceMeshVertex
 10
1.343750022039625
 20
3.855679512023924
 30
8.218749514770781
 70
   192
  0
VERTEX
  5
DE2
330
D75
100
AcDbEntity
  8
0
 62
     7
100
AcDbVertex
100
AcDbPolyFaceMeshVertex
 10
1.000000022039625
 20
3.763571977615356
 30
8.218749514770781
 70
   192
  0
VERTEX
  5
DE3
330
D75
100
AcDbEntity
  8
0
 62
     7
100
AcDbVertex
100
AcDbPolyFaceMeshVertex
 10
1.595392249212475
 20
4.107321739196776
 30
8.218749514770781
 70
   192
  0
VERTEX
  5
DE4
330
D75
100
AcDbEntity
  8
0
 62
     7
100
AcDbVertex
100
AcDbPolyFaceMeshVertex
 10
0.6250000220396253
 20
3.801553010940551
 30
8.187499514770781
 70
   192
  0
VERTEX
  5
DE5
330
D75
100
AcDbEntity
  8
0
 62
     7
100
AcDbVertex
100
AcDbPolyFaceMeshVertex
 10
0.3504810553648188
 20
4.076071739196776
 30
8.187499514770781
 70
   192
  0
VERTEX
  5
DE6
330
D75
100
AcDbEntity
  8
0
 62
     7
100
AcDbVertex
100
AcDbPolyFaceMeshVertex
 10
1.375000022039625
 20
3.801553010940551
 30
8.187499514770781
 70
   192
  0
VERTEX
  5
DE7
330
D75
100
AcDbEntity
  8
0
 62
     7
100
AcDbVertex
100
AcDbPolyFaceMeshVertex
 10
1.000000022039625
 20
3.701071977615356
 30
8.187499514770781
 70
   192
  0
VERTEX
  5
DE8
330
D75
100
AcDbEntity
  8
0
 62
     7
100
AcDbVertex
100
AcDbPolyFaceMeshVertex
 10
1.649518988714422
 20
4.076071739196776
 30
8.187499514770781
 70
   192
  0
VERTEX
  5
DE9
330
D75
100
AcDbEntity
  8
0
 62
     7
100
AcDbVertex
100
AcDbPolyFaceMeshVertex
 10
0.6250000220396253
 20
3.801553010940551
 30
8.062499514770781
 70
   192
  0
VERTEX
  5
DEA
330
D75
100
AcDbEntity
  8
0
 62
     7
100
AcDbVertex
100
AcDbPolyFaceMeshVertex
 10
0.3504810553648188
 20
4.076071739196776
 30
8.062499514770781
 70
   192
  0
VERTEX
  5
DEB
330
D75
100
AcDbEntity
  8
0
 62
     7
100
AcDbVertex
100
AcDbPolyFaceMeshVertex
 10
1.375000022039625
 20
3.801553010940551
 30
8.062499514770781
 70
   192
  0
VERTEX
  5
DEC
330
D75
100
AcDbEntity
  8
0
 62
     7
100
AcDbVertex
100
AcDbPolyFaceMeshVertex
 10
1.000000022039625
 20
3.701071977615356
 30
8.062499514770781
 70
   192
  0
VERTEX
  5
DED
330
D75
100
AcDbEntity
  8
0
 62
     7
100
AcDbVertex
100
AcDbPolyFaceMeshVertex
 10
1.649518988714422
 20
4.076071739196776
 30
8.062499514770781
 70
   192
  0
VERTEX
  5
DEE
330
D75
100
AcDbEntity
  8
0
 62
     7
100
AcDbVertex
100
AcDbPolyFaceMeshVertex
 10
1.890142462835514
 20
4.342988967895506
 30
7.93359326477078
 70
   192
  0
VERTEX
  5
DEF
330
D75
100
AcDbEntity
  8
0
 62
     7
100
AcDbVertex
100
AcDbPolyFaceMeshVertex
 10
1.890142462835514
 20
4.342988967895506
 30
7.62890576477078
 70
   192
  0
VERTEX
  5
DF0
330
D75
100
AcDbEntity
  8
0
 62
     7
100
AcDbVertex
100
AcDbPolyFaceMeshVertex
 10
1.649518988714422
 20
4.076071739196776
 30
7.49999951477078
 70
   192
  0
VERTEX
  5
DF1
330
D75
100
AcDbEntity
  8
0
 62
     7
100
AcDbVertex
100
AcDbPolyFaceMeshVertex
 10
1.646170638189524
 20
4.005052566528319
 30
7.517382613373075
 70
   192
  0
VERTEX
  5
DF2
330
D75
100
AcDbEntity
  8
0
 62
     7
100
AcDbVertex
100
AcDbPolyFaceMeshVertex
 10
1.375000022039625
 20
3.801553010940551
 30
7.49999951477078
 70
   192
  0
VERTEX
  5
DF3
330
D75
100
AcDbEntity
  8
0
 62
     7
100
AcDbVertex
100
AcDbPolyFaceMeshVertex
 10
1.737953208074774
 20
3.941699981689453
 30
7.93359326477078
 70
   192
  0
VERTEX
  5
DF4
330
D75
100
AcDbEntity
  8
0
 62
     7
100
AcDbVertex
100
AcDbPolyFaceMeshVertex
 10
1.771547339544504
 20
3.918511152267456
 30
7.78124951477078
 70
   192
  0
VERTEX
  5
DF5
330
D75
100
AcDbEntity
  8
0
 62
     7
100
AcDbVertex
100
AcDbPolyFaceMeshVertex
 10
1.435678504095282
 20
3.620956897735595
 30
7.78124951477078
 70
   192
  0
VERTEX
  5
DF6
330
D75
100
AcDbEntity
  8
0
 62
     7
100
AcDbVertex
100
AcDbPolyFaceMeshVertex
 10
1.416708014593334
 20
3.657101631164549
 30
7.62890576477078
 70
   192
  0
VERTEX
  5
DF7
330
D75
100
AcDbEntity
  8
0
 62
     7
100
AcDbVertex
100
AcDbPolyFaceMeshVertex
 10
1.737953208074774
 20
3.941699981689453
 30
7.62890576477078
 70
   192
  0
VERTEX
  5
DF8
330
D75
100
AcDbEntity
  8
0
 62
     7
100
AcDbVertex
100
AcDbPolyFaceMeshVertex
 10
1.646170638189524
 20
4.005052566528319
 30
8.045116893005642
 70
   192
  0
VERTEX
  5
DF9
330
D75
100
AcDbEntity
  8
0
 62
     7
100
AcDbVertex
100
AcDbPolyFaceMeshVertex
 10
1.364880583868234
 20
3.755850553512573
 30
8.045116893005642
 70
   192
  0
VERTEX
  5
DFA
330
D75
100
AcDbEntity
  8
0
 62
     7
100
AcDbVertex
100
AcDbPolyFaceMeshVertex
 10
1.416708014593334
 20
3.657101631164549
 30
7.93359326477078
 70
   192
  0
VERTEX
  5
DFB
330
D75
100
AcDbEntity
  8
0
 62
     7
100
AcDbVertex
100
AcDbPolyFaceMeshVertex
 10
1.000000022039625
 20
3.554392337799071
 30
7.93359326477078
 70
   192
  0
VERTEX
  5
DFC
330
D75
100
AcDbEntity
  8
0
 62
     7
100
AcDbVertex
100
AcDbPolyFaceMeshVertex
 10
1.000000022039625
 20
3.554392337799071
 30
7.62890576477078
 70
   192
  0
VERTEX
  5
DFD
330
D75
100
AcDbEntity
  8
0
 62
     7
100
AcDbVertex
100
AcDbPolyFaceMeshVertex
 10
1.000000022039625
 20
3.665915727615356
 30
8.045116893005642
 70
   192
  0
VERTEX
  5
DFE
330
D75
100
AcDbEntity
  8
0
 62
     7
100
AcDbVertex
100
AcDbPolyFaceMeshVertex
 10
0.5832920294859143
 20
3.657101631164549
 30
7.93359326477078
 70
   192
  0
VERTEX
  5
DFF
330
D75
100
AcDbEntity
  8
0
 62
     7
100
AcDbVertex
100
AcDbPolyFaceMeshVertex
 10
0.3504810553648188
 20
4.076071739196776
 30
7.49999951477078
 70
   192
  0
VERTEX
  5
E00
330
D75
100
AcDbEntity
  8
0
 62
     7
100
AcDbVertex
100
AcDbPolyFaceMeshVertex
 10
0.2205686789610102
 20
4.356431961059569
 30
7.517382613373075
 70
   192
  0
VERTEX
  5
E01
330
D75
100
AcDbEntity
  8
0
 62
     7
100
AcDbVertex
100
AcDbPolyFaceMeshVertex
 10
0.2205686789610102
 20
4.356431961059569
 30
8.045116893005642
 70
   192
  0
VERTEX
  5
E02
330
D75
100
AcDbEntity
  8
0
 62
     7
100
AcDbVertex
100
AcDbPolyFaceMeshVertex
 10
0.2620477896787818
 20
3.941699981689453
 30
7.93359326477078
 70
   192
  0
VERTEX
  5
E03
330
D75
100
AcDbEntity
  8
0
 62
     7
100
AcDbVertex
100
AcDbPolyFaceMeshVertex
 10
0.2284527045347406
 20
3.918511152267456
 30
7.78124951477078
 70
   192
  0
VERTEX
  5
E04
330
D75
100
AcDbEntity
  8
0
 62
     7
100
AcDbVertex
100
AcDbPolyFaceMeshVertex
 10
0.0693359595396217
 20
4.338068962097167
 30
7.78124951477078
 70
   192
  0
VERTEX
  5
E05
330
D75
100
AcDbEntity
  8
0
 62
     7
100
AcDbVertex
100
AcDbPolyFaceMeshVertex
 10
0.5643224936582741
 20
3.620956897735595
 30
7.78124951477078
 70
   192
  0
VERTEX
  5
E06
330
D75
100
AcDbEntity
  8
0
 62
     7
100
AcDbVertex
100
AcDbPolyFaceMeshVertex
 10
0.2620477896787818
 20
3.941699981689453
 30
7.62890576477078
 70
   192
  0
VERTEX
  5
E07
330
D75
100
AcDbEntity
  8
0
 62
     7
100
AcDbVertex
100
AcDbPolyFaceMeshVertex
 10
1.000000022039625
 20
3.513571977615356
 30
7.78124951477078
 70
   192
  0
VERTEX
  5
E08
330
D75
100
AcDbEntity
  8
0
 62
     7
100
AcDbVertex
100
AcDbPolyFaceMeshVertex
 10
1.000000022039625
 20
3.665915727615356
 30
7.517382613373075
 70
   192
  0
VERTEX
  5
E09
330
D75
100
AcDbEntity
  8
0
 62
     7
100
AcDbVertex
100
AcDbPolyFaceMeshVertex
 10
0.6351194602110049
 20
3.755850553512573
 30
7.517382613373075
 70
   192
  0
VERTEX
  5
E0A
330
D75
100
AcDbEntity
  8
0
 62
     7
100
AcDbVertex
100
AcDbPolyFaceMeshVertex
 10
0.5832920294859143
 20
3.657101631164549
 30
7.62890576477078
 70
   192
  0
VERTEX
  5
E0B
330
D75
100
AcDbEntity
  8
0
 62
     7
100
AcDbVertex
100
AcDbPolyFaceMeshVertex
 10
1.000000022039625
 20
3.701071977615356
 30
7.49999951477078
 70
   192
  0
VERTEX
  5
E0C
330
D75
100
AcDbEntity
  8
0
 62
     7
100
AcDbVertex
100
AcDbPolyFaceMeshVertex
 10
0.6250000220396253
 20
3.801553010940551
 30
7.49999951477078
 70
   192
  0
VERTEX
  5
E0D
330
D75
100
AcDbEntity
  8
0
 62
     7
100
AcDbVertex
100
AcDbPolyFaceMeshVertex
 10
0.6351194602110049
 20
3.755850553512573
 30
8.045116893005642
 70
   192
  0
VERTEX
  5
E0E
330
D75
100
AcDbEntity
  8
0
 62
     7
100
AcDbVertex
100
AcDbPolyFaceMeshVertex
 10
0.3538294058897211
 20
4.005052566528319
 30
8.045116893005642
 70
   192
  0
VERTEX
  5
E0F
330
D75
100
AcDbEntity
  8
0
 62
     7
100
AcDbVertex
100
AcDbPolyFaceMeshVertex
 10
1.779431365118234
 20
4.356431961059569
 30
8.045116893005642
 70
   192
  0
VERTEX
  5
E10
330
D75
100
AcDbEntity
  8
0
 62
     7
100
AcDbVertex
100
AcDbPolyFaceMeshVertex
 10
1.930665038213934
 20
4.338068962097167
 30
7.78124951477078
 70
   192
  0
VERTEX
  5
E11
330
D75
100
AcDbEntity
  8
0
 62
     7
100
AcDbVertex
100
AcDbPolyFaceMeshVertex
 10
1.779431365118234
 20
4.356431961059569
 30
7.517382613373075
 70
   192
  0
VERTEX
  5
E12
330
D75
100
AcDbEntity
  8
0
 62
     7
100
AcDbVertex
100
AcDbPolyFaceMeshVertex
 10
1.364880583868234
 20
3.755850553512573
 30
7.517382613373075
 70
   192
  0
VERTEX
  5
E13
330
D75
100
AcDbEntity
  8
0
 62
     7
100
AcDbVertex
100
AcDbPolyFaceMeshVertex
 10
0.3538294058897211
 20
4.005052566528319
 30
7.517382613373075
 70
   192
  0
VERTEX
  5
E14
330
D75
100
AcDbEntity
  8
0
 62
     7
100
AcDbVertex
100
AcDbPolyFaceMeshVertex
 10
0.1098585349180414
 20
4.342988967895506
 30
7.62890576477078
 70
   192
  0
VERTEX
  5
E15
330
D75
100
AcDbEntity
  8
0
 62
     7
100
AcDbVertex
100
AcDbPolyFaceMeshVertex
 10
0.1098585349180414
 20
4.342988967895506
 30
7.93359326477078
 70
   192
  0
VERTEX
  5
E16
330
D75
100
AcDbEntity
  8
0
 62
     7
100
AcDbVertex
100
AcDbPolyFaceMeshVertex
 10
0.3545160513975336
 20
4.078401565551756
 30
7.497769347381863
 70
   192
  0
VERTEX
  5
E17
330
D75
100
AcDbEntity
  8
0
 62
     7
100
AcDbVertex
100
AcDbPolyFaceMeshVertex
 10
0.627329848394604
 20
3.805588006973266
 30
7.497769347381863
 70
   192
  0
VERTEX
  5
E18
330
D75
100
AcDbEntity
  8
0
 62
     7
100
AcDbVertex
100
AcDbPolyFaceMeshVertex
 10
0.6250000220396253
 20
3.801553010940551
 30
7.43749951477078
 70
   192
  0
VERTEX
  5
E19
330
D75
100
AcDbEntity
  8
0
 62
     7
100
AcDbVertex
100
AcDbPolyFaceMeshVertex
 10
0.627329848394604
 20
3.805588006973266
 30
7.439729682159696
 70
   192
  0
VERTEX
  5
E1A
330
D75
100
AcDbEntity
  8
0
 62
     7
100
AcDbVertex
100
AcDbPolyFaceMeshVertex
 10
0.3504810553648188
 20
4.076071739196776
 30
7.43749951477078
 70
   192
  0
VERTEX
  5
E1B
330
D75
100
AcDbEntity
  8
0
 62
     7
100
AcDbVertex
100
AcDbPolyFaceMeshVertex
 10
0.3690262061216547
 20
4.086778640747069
 30
7.46874951477078
 70
   192
  0
VERTEX
  5
E1C
330
D75
100
AcDbEntity
  8
0
 62
     7
100
AcDbVertex
100
AcDbPolyFaceMeshVertex
 10
1.366538069830145
 20
3.816209793090819
 30
7.451994887542997
 70
   192
  0
VERTEX
  5
E1D
330
D75
100
AcDbEntity
  8
0
 62
     7
100
AcDbVertex
100
AcDbPolyFaceMeshVertex
 10
1.630974791631903
 20
4.086778640747069
 30
7.46874951477078
 70
   192
  0
VERTEX
  5
E1E
330
D75
100
AcDbEntity
  8
0
 62
     7
100
AcDbVertex
100
AcDbPolyFaceMeshVertex
 10
1.364293120489325
 20
3.820097923278808
 30
7.46874951477078
 70
   192
  0
VERTEX
  5
E1F
330
D75
100
AcDbEntity
  8
0
 62
     7
100
AcDbVertex
100
AcDbPolyFaceMeshVertex
 10
1.372670195684644
 20
3.805588006973266
 30
7.497769347381863
 70
   192
  0
VERTEX
  5
E20
330
D75
100
AcDbEntity
  8
0
 62
     7
100
AcDbVertex
100
AcDbPolyFaceMeshVertex
 10
1.634861968145575
 20
4.084534168243408
 30
7.451994887542997
 70
   192
  0
VERTEX
  5
E21
330
D75
100
AcDbEntity
  8
0
 62
     7
100
AcDbVertex
100
AcDbPolyFaceMeshVertex
 10
1.372670195684644
 20
3.805588006973266
 30
7.439729682159696
 70
   192
  0
VERTEX
  5
E22
330
D75
100
AcDbEntity
  8
0
 62
     7
100
AcDbVertex
100
AcDbPolyFaceMeshVertex
 10
1.375000022039625
 20
3.801553010940551
 30
7.43749951477078
 70
   192
  0
VERTEX
  5
E23
330
D75
100
AcDbEntity
  8
0
 62
     7
100
AcDbVertex
100
AcDbPolyFaceMeshVertex
 10
1.000000022039625
 20
3.701071977615356
 30
7.43749951477078
 70
   192
  0
VERTEX
  5
E24
330
D75
100
AcDbEntity
  8
0
 62
     7
100
AcDbVertex
100
AcDbPolyFaceMeshVertex
 10
0.6334619742490944
 20
3.816209793090819
 30
7.451994887542997
 70
   192
  0
VERTEX
  5
E25
330
D75
100
AcDbEntity
  8
0
 62
     7
100
AcDbVertex
100
AcDbPolyFaceMeshVertex
 10
1.000000022039625
 20
3.717996358871458
 30
7.451994887542997
 70
   192
  0
VERTEX
  5
E26
330
D75
100
AcDbEntity
  8
0
 62
     7
100
AcDbVertex
100
AcDbPolyFaceMeshVertex
 10
1.000000022039625
 20
3.717996358871458
 30
7.485504141998562
 70
   192
  0
VERTEX
  5
E27
330
D75
100
AcDbEntity
  8
0
 62
     7
100
AcDbVertex
100
AcDbPolyFaceMeshVertex
 10
1.366538069830145
 20
3.816209793090819
 30
7.485504141998562
 70
   192
  0
VERTEX
  5
E28
330
D75
100
AcDbEntity
  8
0
 62
     7
100
AcDbVertex
100
AcDbPolyFaceMeshVertex
 10
0.6334619742490944
 20
3.816209793090819
 30
7.485504141998562
 70
   192
  0
VERTEX
  5
E29
330
D75
100
AcDbEntity
  8
0
 62
     7
100
AcDbVertex
100
AcDbPolyFaceMeshVertex
 10
0.6357069235899147
 20
3.820097923278808
 30
7.46874951477078
 70
   192
  0
VERTEX
  5
E2A
330
D75
100
AcDbEntity
  8
0
 62
     7
100
AcDbVertex
100
AcDbPolyFaceMeshVertex
 10
1.000000022039625
 20
3.722485780715941
 30
7.46874951477078
 70
   192
  0
VERTEX
  5
E2B
330
D75
100
AcDbEntity
  8
0
 62
     7
100
AcDbVertex
100
AcDbPolyFaceMeshVertex
 10
0.3651380759336664
 20
4.084534168243408
 30
7.451994887542997
 70
   192
  0
VERTEX
  5
E2C
330
D75
100
AcDbEntity
  8
0
 62
     7
100
AcDbVertex
100
AcDbPolyFaceMeshVertex
 10
1.634861968145575
 20
4.084534168243408
 30
7.485504141998562
 70
   192
  0
VERTEX
  5
E2D
330
D75
100
AcDbEntity
  8
0
 62
     7
100
AcDbVertex
100
AcDbPolyFaceMeshVertex
 10
1.000000022039625
 20
3.705731153488158
 30
7.497769347381863
 70
   192
  0
VERTEX
  5
E2E
330
D75
100
AcDbEntity
  8
0
 62
     7
100
AcDbVertex
100
AcDbPolyFaceMeshVertex
 10
1.645483992681715
 20
4.078401565551756
 30
7.497769347381863
 70
   192
  0
VERTEX
  5
E2F
330
D75
100
AcDbEntity
  8
0
 62
     7
100
AcDbVertex
100
AcDbPolyFaceMeshVertex
 10
1.645483992681715
 20
4.078401565551756
 30
7.439729682159696
 70
   192
  0
VERTEX
  5
E30
330
D75
100
AcDbEntity
  8
0
 62
     7
100
AcDbVertex
100
AcDbPolyFaceMeshVertex
 10
1.649518988714422
 20
4.076071739196776
 30
7.43749951477078
 70
   192
  0
VERTEX
  5
E31
330
D75
100
AcDbEntity
  8
0
 62
     7
100
AcDbVertex
100
AcDbPolyFaceMeshVertex
 10
1.000000022039625
 20
3.705731153488158
 30
7.439729682159696
 70
   192
  0
VERTEX
  5
E32
330
D75
100
AcDbEntity
  8
0
 62
     7
100
AcDbVertex
100
AcDbPolyFaceMeshVertex
 10
0.3545160513975336
 20
4.078401565551756
 30
7.439729682159696
 70
   192
  0
VERTEX
  5
E33
330
D75
100
AcDbEntity
  8
0
 62
     7
100
AcDbVertex
100
AcDbPolyFaceMeshVertex
 10
0.3651380759336664
 20
4.084534168243408
 30
7.485504141998562
 70
   192
  0
VERTEX
  5
E34
330
D75
100
AcDbEntity
  8
0
 62
     7
100
AcDbVertex
100
AcDbPolyFaceMeshVertex
 10
0.0000000220396217
 20
3.451071977615356
 30
-0.0000000083920639
 70
   192
  0
VERTEX
  5
E35
330
D75
100
AcDbEntity
  8
0
 62
     7
100
AcDbVertex
100
AcDbPolyFaceMeshVertex
 10
0.0000000220396217
 20
3.451071977615356
 30
7.093742362213407
 70
   192
  0
VERTEX
  5
E36
330
D75
100
AcDbEntity
  8
0
 62
     7
100
AcDbVertex
100
AcDbPolyFaceMeshVertex
 10
0.0000000220396217
 20
3.951514482498167
 30
7.251763335418972
 70
   192
  0
VERTEX
  5
E37
330
D75
100
AcDbEntity
  8
0
 62
     7
100
AcDbVertex
100
AcDbPolyFaceMeshVertex
 10
2.000000022039625
 20
3.951514482498167
 30
7.251763335418972
 70
   192
  0
VERTEX
  5
E38
330
D75
100
AcDbEntity
  8
0
 62
     7
100
AcDbVertex
100
AcDbPolyFaceMeshVertex
 10
2.000000022039625
 20
3.451071977615356
 30
7.093742362213407
 70
   192
  0
VERTEX
  5
E39
330
D75
100
AcDbEntity
  8
0
 62
     7
100
AcDbVertex
100
AcDbPolyFaceMeshVertex
 10
1.499557517156805
 20
3.451071977615356
 30
7.251763335418972
 70
   192
  0
VERTEX
  5
E3A
330
D75
100
AcDbEntity
  8
0
 62
     7
100
AcDbVertex
100
AcDbPolyFaceMeshVertex
 10
1.000000022039625
 20
3.451071977615356
 30
7.31249951477078
 70
   192
  0
VERTEX
  5
E3B
330
D75
100
AcDbEntity
  8
0
 62
     7
100
AcDbVertex
100
AcDbPolyFaceMeshVertex
 10
0.5004425269224342
 20
3.451071977615356
 30
7.251763335418972
 70
   192
  0
VERTEX
  5
E3C
330
D75
100
AcDbEntity
  8
0
 62
     7
100
AcDbVertex
100
AcDbPolyFaceMeshVertex
 10
2.000000022039625
 20
3.451071977615356
 30
-0.0000000083920639
 70
   192
  0
VERTEX
  5
E3D
330
D75
100
AcDbEntity
  8
0
 62
     7
100
AcDbFaceRecord
 10
0.0
 20
0.0
 30
0.0
 70
   128
 71
     1
 72
     2
 73
     3
  0
VERTEX
  5
E3E
330
D75
100
AcDbEntity
  8
0
 62
     7
100
AcDbFaceRecord
 10
0.0
 20
0.0
 30
0.0
 70
   128
 71
     4
 72
     5
 73
     6
  0
VERTEX
  5
E3F
330
D75
100
AcDbEntity
  8
0
 62
     7
100
AcDbFaceRecord
 10
0.0
 20
0.0
 30
0.0
 70
   128
 71
     7
 72
     5
 73
     4
  0
VERTEX
  5
E40
330
D75
100
AcDbEntity
  8
0
 62
     7
100
AcDbFaceRecord
 10
0.0
 20
0.0
 30
0.0
 70
   128
 71
     8
 72
     6
 73
     5
  0
VERTEX
  5
E41
330
D75
100
AcDbEntity
  8
0
 62
     7
100
AcDbFaceRecord
 10
0.0
 20
0.0
 30
0.0
 70
   128
 71
     9
 72
    10
 73
    11
  0
VERTEX
  5
E42
330
D75
100
AcDbEntity
  8
0
 62
     7
100
AcDbFaceRecord
 10
0.0
 20
0.0
 30
0.0
 70
   128
 71
     2
 72
    10
 73
     9
  0
VERTEX
  5
E43
330
D75
100
AcDbEntity
  8
0
 62
     7
100
AcDbFaceRecord
 10
0.0
 20
0.0
 30
0.0
 70
   128
 71
    12
 72
     9
 73
    11
  0
VERTEX
  5
E44
330
D75
100
AcDbEntity
  8
0
 62
     7
100
AcDbFaceRecord
 10
0.0
 20
0.0
 30
0.0
 70
   128
 71
    13
 72
    14
 73
    15
  0
VERTEX
  5
E45
330
D75
100
AcDbEntity
  8
0
 62
     7
100
AcDbFaceRecord
 10
0.0
 20
0.0
 30
0.0
 70
   128
 71
    16
 72
    14
 73
    13
  0
VERTEX
  5
E46
330
D75
100
AcDbEntity
  8
0
 62
     7
100
AcDbFaceRecord
 10
0.0
 20
0.0
 30
0.0
 70
   128
 71
    17
 72
    16
 73
    13
  0
VERTEX
  5
E47
330
D75
100
AcDbEntity
  8
0
 62
     7
100
AcDbFaceRecord
 10
0.0
 20
0.0
 30
0.0
 70
   128
 71
    11
 72
    15
 73
    14
  0
VERTEX
  5
E48
330
D75
100
AcDbEntity
  8
0
 62
     7
100
AcDbFaceRecord
 10
0.0
 20
0.0
 30
0.0
 70
   128
 71
    18
 72
    15
 73
    11
  0
VERTEX
  5
E49
330
D75
100
AcDbEntity
  8
0
 62
     7
100
AcDbFaceRecord
 10
0.0
 20
0.0
 30
0.0
 70
   128
 71
    18
 72
    11
 73
    10
  0
VERTEX
  5
E4A
330
D75
100
AcDbEntity
  8
0
 62
     7
100
AcDbFaceRecord
 10
0.0
 20
0.0
 30
0.0
 70
   128
 71
    19
 72
     9
 73
     4
  0
VERTEX
  5
E4B
330
D75
100
AcDbEntity
  8
0
 62
     7
100
AcDbFaceRecord
 10
0.0
 20
0.0
 30
0.0
 70
   128
 71
    19
 72
     2
 73
     9
  0
VERTEX
  5
E4C
330
D75
100
AcDbEntity
  8
0
 62
     7
100
AcDbFaceRecord
 10
0.0
 20
0.0
 30
0.0
 70
   128
 71
    20
 72
     2
 73
     1
  0
VERTEX
  5
E4D
330
D75
100
AcDbEntity
  8
0
 62
     7
100
AcDbFaceRecord
 10
0.0
 20
0.0
 30
0.0
 70
   128
 71
    21
 72
    20
 73
     1
  0
VERTEX
  5
E4E
330
D75
100
AcDbEntity
  8
0
 62
     7
100
AcDbFaceRecord
 10
0.0
 20
0.0
 30
0.0
 70
   128
 71
    22
 72
    21
 73
     1
  0
VERTEX
  5
E4F
330
D75
100
AcDbEntity
  8
0
 62
     7
100
AcDbFaceRecord
 10
0.0
 20
0.0
 30
0.0
 70
   128
 71
    23
 72
    22
 73
     1
  0
VERTEX
  5
E50
330
D75
100
AcDbEntity
  8
0
 62
     7
100
AcDbFaceRecord
 10
0.0
 20
0.0
 30
0.0
 70
   128
 71
    24
 72
    23
 73
     1
  0
VERTEX
  5
E51
330
D75
100
AcDbEntity
  8
0
 62
     7
100
AcDbFaceRecord
 10
0.0
 20
0.0
 30
0.0
 70
   128
 71
    25
 72
    19
 73
    26
  0
VERTEX
  5
E52
330
D75
100
AcDbEntity
  8
0
 62
     7
100
AcDbFaceRecord
 10
0.0
 20
0.0
 30
0.0
 70
   128
 71
    25
 72
     2
 73
    19
  0
VERTEX
  5
E53
330
D75
100
AcDbEntity
  8
0
 62
     7
100
AcDbFaceRecord
 10
0.0
 20
0.0
 30
0.0
 70
   128
 71
    25
 72
     3
 73
     2
  0
VERTEX
  5
E54
330
D75
100
AcDbEntity
  8
0
 62
     7
100
AcDbFaceRecord
 10
0.0
 20
0.0
 30
0.0
 70
   128
 71
    27
 72
    28
 73
     3
  0
VERTEX
  5
E55
330
D75
100
AcDbEntity
  8
0
 62
     7
100
AcDbFaceRecord
 10
0.0
 20
0.0
 30
0.0
 70
   128
 71
    29
 72
    27
 73
     3
  0
VERTEX
  5
E56
330
D75
100
AcDbEntity
  8
0
 62
     7
100
AcDbFaceRecord
 10
0.0
 20
0.0
 30
0.0
 70
   128
 71
    30
 72
    29
 73
     3
  0
VERTEX
  5
E57
330
D75
100
AcDbEntity
  8
0
 62
     7
100
AcDbFaceRecord
 10
0.0
 20
0.0
 30
0.0
 70
   128
 71
    31
 72
    30
 73
     3
  0
VERTEX
  5
E58
330
D75
100
AcDbEntity
  8
0
 62
     7
100
AcDbFaceRecord
 10
0.0
 20
0.0
 30
0.0
 70
   128
 71
    31
 72
     3
 73
    25
  0
VERTEX
  5
E59
330
D75
100
AcDbEntity
  8
0
 62
     7
100
AcDbFaceRecord
 10
0.0
 20
0.0
 30
0.0
 70
   128
 71
    32
 72
    26
 73
    19
  0
VERTEX
  5
E5A
330
D75
100
AcDbEntity
  8
0
 62
     7
100
AcDbFaceRecord
 10
0.0
 20
0.0
 30
0.0
 70
   128
 71
    33
 72
    26
 73
    32
  0
VERTEX
  5
E5B
330
D75
100
AcDbEntity
  8
0
 62
     7
100
AcDbFaceRecord
 10
0.0
 20
0.0
 30
0.0
 70
   128
 71
    34
 72
    33
 73
    32
  0
VERTEX
  5
E5C
330
D75
100
AcDbEntity
  8
0
 62
     7
100
AcDbFaceRecord
 10
0.0
 20
0.0
 30
0.0
 70
   128
 71
    35
 72
    34
 73
    32
  0
VERTEX
  5
E5D
330
D75
100
AcDbEntity
  8
0
 62
     7
100
AcDbFaceRecord
 10
0.0
 20
0.0
 30
0.0
 70
   128
 71
    36
 72
    35
 73
    37
  0
VERTEX
  5
E5E
330
D75
100
AcDbEntity
  8
0
 62
     7
100
AcDbFaceRecord
 10
0.0
 20
0.0
 30
0.0
 70
   128
 71
    38
 72
    36
 73
    37
  0
VERTEX
  5
E5F
330
D75
100
AcDbEntity
  8
0
 62
     7
100
AcDbFaceRecord
 10
0.0
 20
0.0
 30
0.0
 70
   128
 71
    37
 72
    35
 73
    32
  0
VERTEX
  5
E60
330
D75
100
AcDbEntity
  8
0
 62
     7
100
AcDbFaceRecord
 10
0.0
 20
0.0
 30
0.0
 70
   128
 71
    39
 72
    32
 73
    19
  0
VERTEX
  5
E61
330
D75
100
AcDbEntity
  8
0
 62
     7
100
AcDbFaceRecord
 10
0.0
 20
0.0
 30
0.0
 70
   128
 71
    19
 72
     4
 73
     6
  0
VERTEX
  5
E62
330
D75
100
AcDbEntity
  8
0
 62
     7
100
AcDbFaceRecord
 10
0.0
 20
0.0
 30
0.0
 70
   128
 71
    40
 72
     6
 73
     8
  0
VERTEX
  5
E63
330
D75
100
AcDbEntity
  8
0
 62
     7
100
AcDbFaceRecord
 10
0.0
 20
0.0
 30
0.0
 70
   128
 71
    41
 72
     8
 73
     5
  0
VERTEX
  5
E64
330
D75
100
AcDbEntity
  8
0
 62
     7
100
AcDbFaceRecord
 10
0.0
 20
0.0
 30
0.0
 70
   128
 71
    42
 72
    41
 73
    43
  0
VERTEX
  5
E65
330
D75
100
AcDbEntity
  8
0
 62
     7
100
AcDbFaceRecord
 10
0.0
 20
0.0
 30
0.0
 70
   128
 71
    44
 72
    42
 73
    43
  0
VERTEX
  5
E66
330
D75
100
AcDbEntity
  8
0
 62
     7
100
AcDbFaceRecord
 10
0.0
 20
0.0
 30
0.0
 70
   128
 71
    43
 72
    41
 73
     5
  0
VERTEX
  5
E67
330
D75
100
AcDbEntity
  8
0
 62
     7
100
AcDbFaceRecord
 10
0.0
 20
0.0
 30
0.0
 70
   128
 71
    45
 72
     4
 73
    46
  0
VERTEX
  5
E68
330
D75
100
AcDbEntity
  8
0
 62
     7
100
AcDbFaceRecord
 10
0.0
 20
0.0
 30
0.0
 70
   128
 71
    45
 72
     7
 73
     4
  0
VERTEX
  5
E69
330
D75
100
AcDbEntity
  8
0
 62
     7
100
AcDbFaceRecord
 10
0.0
 20
0.0
 30
0.0
 70
   128
 71
    47
 72
     7
 73
    45
  0
VERTEX
  5
E6A
330
D75
100
AcDbEntity
  8
0
 62
     7
100
AcDbFaceRecord
 10
0.0
 20
0.0
 30
0.0
 70
   128
 71
    48
 72
    47
 73
    49
  0
VERTEX
  5
E6B
330
D75
100
AcDbEntity
  8
0
 62
     7
100
AcDbFaceRecord
 10
0.0
 20
0.0
 30
0.0
 70
   128
 71
    50
 72
    48
 73
    49
  0
VERTEX
  5
E6C
330
D75
100
AcDbEntity
  8
0
 62
     7
100
AcDbFaceRecord
 10
0.0
 20
0.0
 30
0.0
 70
   128
 71
    49
 72
    47
 73
    45
  0
VERTEX
  5
E6D
330
D75
100
AcDbEntity
  8
0
 62
     7
100
AcDbFaceRecord
 10
0.0
 20
0.0
 30
0.0
 70
   128
 71
    43
 72
    51
 73
    44
  0
VERTEX
  5
E6E
330
D75
100
AcDbEntity
  8
0
 62
     7
100
AcDbFaceRecord
 10
0.0
 20
0.0
 30
0.0
 70
   128
 71
    42
 72
    52
 73
    41
  0
VERTEX
  5
E6F
330
D75
100
AcDbEntity
  8
0
 62
     7
100
AcDbFaceRecord
 10
0.0
 20
0.0
 30
0.0
 70
   128
 71
    53
 72
    54
 73
    55
  0
VERTEX
  5
E70
330
D75
100
AcDbEntity
  8
0
 62
     7
100
AcDbFaceRecord
 10
0.0
 20
0.0
 30
0.0
 70
   128
 71
    51
 72
    56
 73
    57
  0
VERTEX
  5
E71
330
D75
100
AcDbEntity
  8
0
 62
     7
100
AcDbFaceRecord
 10
0.0
 20
0.0
 30
0.0
 70
   128
 71
    58
 72
    57
 73
    56
  0
VERTEX
  5
E72
330
D75
100
AcDbEntity
  8
0
 62
     7
100
AcDbFaceRecord
 10
0.0
 20
0.0
 30
0.0
 70
   128
 71
    58
 72
    59
 73
    57
  0
VERTEX
  5
E73
330
D75
100
AcDbEntity
  8
0
 62
     7
100
AcDbFaceRecord
 10
0.0
 20
0.0
 30
0.0
 70
   128
 71
    52
 72
    60
 73
    54
  0
VERTEX
  5
E74
330
D75
100
AcDbEntity
  8
0
 62
     7
100
AcDbFaceRecord
 10
0.0
 20
0.0
 30
0.0
 70
   128
 71
    61
 72
    62
 73
    63
  0
VERTEX
  5
E75
330
D75
100
AcDbEntity
  8
0
 62
     7
100
AcDbFaceRecord
 10
0.0
 20
0.0
 30
0.0
 70
   128
 71
    61
 72
    64
 73
    62
  0
VERTEX
  5
E76
330
D75
100
AcDbEntity
  8
0
 62
     7
100
AcDbFaceRecord
 10
0.0
 20
0.0
 30
0.0
 70
   128
 71
    65
 72
    62
 73
    64
  0
VERTEX
  5
E77
330
D75
100
AcDbEntity
  8
0
 62
     7
100
AcDbFaceRecord
 10
0.0
 20
0.0
 30
0.0
 70
   128
 71
    65
 72
    56
 73
    62
  0
VERTEX
  5
E78
330
D75
100
AcDbEntity
  8
0
 62
     7
100
AcDbFaceRecord
 10
0.0
 20
0.0
 30
0.0
 70
   128
 71
    65
 72
    58
 73
    56
  0
VERTEX
  5
E79
330
D75
100
AcDbEntity
  8
0
 62
     7
100
AcDbFaceRecord
 10
0.0
 20
0.0
 30
0.0
 70
   128
 71
    66
 72
    65
 73
    64
  0
VERTEX
  5
E7A
330
D75
100
AcDbEntity
  8
0
 62
     7
100
AcDbFaceRecord
 10
0.0
 20
0.0
 30
0.0
 70
   128
 71
    60
 72
    57
 73
    59
  0
VERTEX
  5
E7B
330
D75
100
AcDbEntity
  8
0
 62
     7
100
AcDbFaceRecord
 10
0.0
 20
0.0
 30
0.0
 70
   128
 71
    67
 72
    59
 73
    58
  0
VERTEX
  5
E7C
330
D75
100
AcDbEntity
  8
0
 62
     7
100
AcDbFaceRecord
 10
0.0
 20
0.0
 30
0.0
 70
   128
 71
    68
 72
    69
 73
    66
  0
VERTEX
  5
E7D
330
D75
100
AcDbEntity
  8
0
 62
     7
100
AcDbFaceRecord
 10
0.0
 20
0.0
 30
0.0
 70
   128
 71
    45
 72
    70
 73
    71
  0
VERTEX
  5
E7E
330
D75
100
AcDbEntity
  8
0
 62
     7
100
AcDbFaceRecord
 10
0.0
 20
0.0
 30
0.0
 70
   128
 71
     7
 72
    47
 73
    72
  0
VERTEX
  5
E7F
330
D75
100
AcDbEntity
  8
0
 62
     7
100
AcDbFaceRecord
 10
0.0
 20
0.0
 30
0.0
 70
   128
 71
    73
 72
    74
 73
    69
  0
VERTEX
  5
E80
330
D75
100
AcDbEntity
  8
0
 62
     7
100
AcDbFaceRecord
 10
0.0
 20
0.0
 30
0.0
 70
   128
 71
    73
 72
    75
 73
    74
  0
VERTEX
  5
E81
330
D75
100
AcDbEntity
  8
0
 62
     7
100
AcDbFaceRecord
 10
0.0
 20
0.0
 30
0.0
 70
   128
 71
    48
 72
    50
 73
    75
  0
VERTEX
  5
E82
330
D75
100
AcDbEntity
  8
0
 62
     7
100
AcDbFaceRecord
 10
0.0
 20
0.0
 30
0.0
 70
   128
 71
    68
 72
    66
 73
    64
  0
VERTEX
  5
E83
330
D75
100
AcDbEntity
  8
0
 62
     7
100
AcDbFaceRecord
 10
0.0
 20
0.0
 30
0.0
 70
   128
 71
    76
 72
    74
 73
    77
  0
VERTEX
  5
E84
330
D75
100
AcDbEntity
  8
0
 62
     7
100
AcDbFaceRecord
 10
0.0
 20
0.0
 30
0.0
 70
   128
 71
    76
 72
    69
 73
    74
  0
VERTEX
  5
E85
330
D75
100
AcDbEntity
  8
0
 62
     7
100
AcDbFaceRecord
 10
0.0
 20
0.0
 30
0.0
 70
   128
 71
    76
 72
    66
 73
    69
  0
VERTEX
  5
E86
330
D75
100
AcDbEntity
  8
0
 62
     7
100
AcDbFaceRecord
 10
0.0
 20
0.0
 30
0.0
 70
   128
 71
    78
 72
    65
 73
    66
  0
VERTEX
  5
E87
330
D75
100
AcDbEntity
  8
0
 62
     7
100
AcDbFaceRecord
 10
0.0
 20
0.0
 30
0.0
 70
   128
 71
    78
 72
    58
 73
    65
  0
VERTEX
  5
E88
330
D75
100
AcDbEntity
  8
0
 62
     7
100
AcDbFaceRecord
 10
0.0
 20
0.0
 30
0.0
 70
   128
 71
    78
 72
    67
 73
    58
  0
VERTEX
  5
E89
330
D75
100
AcDbEntity
  8
0
 62
     7
100
AcDbFaceRecord
 10
0.0
 20
0.0
 30
0.0
 70
   128
 71
    78
 72
    66
 73
    76
  0
VERTEX
  5
E8A
330
D75
100
AcDbEntity
  8
0
 62
     7
100
AcDbFaceRecord
 10
0.0
 20
0.0
 30
0.0
 70
   128
 71
    79
 72
    67
 73
    80
  0
VERTEX
  5
E8B
330
D75
100
AcDbEntity
  8
0
 62
     7
100
AcDbFaceRecord
 10
0.0
 20
0.0
 30
0.0
 70
   128
 71
    79
 72
    59
 73
    67
  0
VERTEX
  5
E8C
330
D75
100
AcDbEntity
  8
0
 62
     7
100
AcDbFaceRecord
 10
0.0
 20
0.0
 30
0.0
 70
   128
 71
    81
 72
    76
 73
    77
  0
VERTEX
  5
E8D
330
D75
100
AcDbEntity
  8
0
 62
     7
100
AcDbFaceRecord
 10
0.0
 20
0.0
 30
0.0
 70
   128
 71
    81
 72
    78
 73
    76
  0
VERTEX
  5
E8E
330
D75
100
AcDbEntity
  8
0
 62
     7
100
AcDbFaceRecord
 10
0.0
 20
0.0
 30
0.0
 70
   128
 71
    81
 72
    67
 73
    78
  0
VERTEX
  5
E8F
330
D75
100
AcDbEntity
  8
0
 62
     7
100
AcDbFaceRecord
 10
0.0
 20
0.0
 30
0.0
 70
   128
 71
    81
 72
    80
 73
    67
  0
VERTEX
  5
E90
330
D75
100
AcDbEntity
  8
0
 62
     7
100
AcDbFaceRecord
 10
0.0
 20
0.0
 30
0.0
 70
   128
 71
    82
 72
    68
 73
    64
  0
VERTEX
  5
E91
330
D75
100
AcDbEntity
  8
0
 62
     7
100
AcDbFaceRecord
 10
0.0
 20
0.0
 30
0.0
 70
   128
 71
    83
 72
    80
 73
    84
  0
VERTEX
  5
E92
330
D75
100
AcDbEntity
  8
0
 62
     7
100
AcDbFaceRecord
 10
0.0
 20
0.0
 30
0.0
 70
   128
 71
    83
 72
    79
 73
    80
  0
VERTEX
  5
E93
330
D75
100
AcDbEntity
  8
0
 62
     7
100
AcDbFaceRecord
 10
0.0
 20
0.0
 30
0.0
 70
   128
 71
    85
 72
    68
 73
    82
  0
VERTEX
  5
E94
330
D75
100
AcDbEntity
  8
0
 62
     7
100
AcDbFaceRecord
 10
0.0
 20
0.0
 30
0.0
 70
   128
 71
    85
 72
    69
 73
    68
  0
VERTEX
  5
E95
330
D75
100
AcDbEntity
  8
0
 62
     7
100
AcDbFaceRecord
 10
0.0
 20
0.0
 30
0.0
 70
   128
 71
    85
 72
    73
 73
    69
  0
VERTEX
  5
E96
330
D75
100
AcDbEntity
  8
0
 62
     7
100
AcDbFaceRecord
 10
0.0
 20
0.0
 30
0.0
 70
   128
 71
    85
 72
    86
 73
    73
  0
VERTEX
  5
E97
330
D75
100
AcDbEntity
  8
0
 62
     7
100
AcDbFaceRecord
 10
0.0
 20
0.0
 30
0.0
 70
   128
 71
    85
 72
    87
 73
    86
  0
VERTEX
  5
E98
330
D75
100
AcDbEntity
  8
0
 62
     7
100
AcDbFaceRecord
 10
0.0
 20
0.0
 30
0.0
 70
   128
 71
    87
 72
    85
 73
    82
  0
VERTEX
  5
E99
330
D75
100
AcDbEntity
  8
0
 62
     7
100
AcDbFaceRecord
 10
0.0
 20
0.0
 30
0.0
 70
   128
 71
    82
 72
    64
 73
    61
  0
VERTEX
  5
E9A
330
D75
100
AcDbEntity
  8
0
 62
     7
100
AcDbFaceRecord
 10
0.0
 20
0.0
 30
0.0
 70
   128
 71
    88
 72
    51
 73
    43
  0
VERTEX
  5
E9B
330
D75
100
AcDbEntity
  8
0
 62
     7
100
AcDbFaceRecord
 10
0.0
 20
0.0
 30
0.0
 70
   128
 71
    88
 72
    56
 73
    51
  0
VERTEX
  5
E9C
330
D75
100
AcDbEntity
  8
0
 62
     7
100
AcDbFaceRecord
 10
0.0
 20
0.0
 30
0.0
 70
   128
 71
    88
 72
    62
 73
    56
  0
VERTEX
  5
E9D
330
D75
100
AcDbEntity
  8
0
 62
     7
100
AcDbFaceRecord
 10
0.0
 20
0.0
 30
0.0
 70
   128
 71
    88
 72
    63
 73
    62
  0
VERTEX
  5
E9E
330
D75
100
AcDbEntity
  8
0
 62
     7
100
AcDbFaceRecord
 10
0.0
 20
0.0
 30
0.0
 70
   128
 71
     5
 72
    63
 73
    88
  0
VERTEX
  5
E9F
330
D75
100
AcDbEntity
  8
0
 62
     7
100
AcDbFaceRecord
 10
0.0
 20
0.0
 30
0.0
 70
   128
 71
     5
 72
    88
 73
    43
  0
VERTEX
  5
EA0
330
D75
100
AcDbEntity
  8
0
 62
     7
100
AcDbFaceRecord
 10
0.0
 20
0.0
 30
0.0
 70
   128
 71
    89
 72
    52
 73
    42
  0
VERTEX
  5
EA1
330
D75
100
AcDbEntity
  8
0
 62
     7
100
AcDbFaceRecord
 10
0.0
 20
0.0
 30
0.0
 70
   128
 71
    89
 72
    60
 73
    52
  0
VERTEX
  5
EA2
330
D75
100
AcDbEntity
  8
0
 62
     7
100
AcDbFaceRecord
 10
0.0
 20
0.0
 30
0.0
 70
   128
 71
    89
 72
    57
 73
    60
  0
VERTEX
  5
EA3
330
D75
100
AcDbEntity
  8
0
 62
     7
100
AcDbFaceRecord
 10
0.0
 20
0.0
 30
0.0
 70
   128
 71
    89
 72
    51
 73
    57
  0
VERTEX
  5
EA4
330
D75
100
AcDbEntity
  8
0
 62
     7
100
AcDbFaceRecord
 10
0.0
 20
0.0
 30
0.0
 70
   128
 71
    89
 72
    44
 73
    51
  0
VERTEX
  5
EA5
330
D75
100
AcDbEntity
  8
0
 62
     7
100
AcDbFaceRecord
 10
0.0
 20
0.0
 30
0.0
 70
   128
 71
    44
 72
    89
 73
    42
  0
VERTEX
  5
EA6
330
D75
100
AcDbEntity
  8
0
 62
     7
100
AcDbFaceRecord
 10
0.0
 20
0.0
 30
0.0
 70
   128
 71
    90
 72
    54
 73
    53
  0
VERTEX
  5
EA7
330
D75
100
AcDbEntity
  8
0
 62
     7
100
AcDbFaceRecord
 10
0.0
 20
0.0
 30
0.0
 70
   128
 71
    90
 72
    52
 73
    54
  0
VERTEX
  5
EA8
330
D75
100
AcDbEntity
  8
0
 62
     7
100
AcDbFaceRecord
 10
0.0
 20
0.0
 30
0.0
 70
   128
 71
    90
 72
    41
 73
    52
  0
VERTEX
  5
EA9
330
D75
100
AcDbEntity
  8
0
 62
     7
100
AcDbFaceRecord
 10
0.0
 20
0.0
 30
0.0
 70
   128
 71
     8
 72
    41
 73
    90
  0
VERTEX
  5
EAA
330
D75
100
AcDbEntity
  8
0
 62
     7
100
AcDbFaceRecord
 10
0.0
 20
0.0
 30
0.0
 70
   128
 71
     8
 72
    90
 73
    53
  0
VERTEX
  5
EAB
330
D75
100
AcDbEntity
  8
0
 62
     7
100
AcDbFaceRecord
 10
0.0
 20
0.0
 30
0.0
 70
   128
 71
    91
 72
    79
 73
    83
  0
VERTEX
  5
EAC
330
D75
100
AcDbEntity
  8
0
 62
     7
100
AcDbFaceRecord
 10
0.0
 20
0.0
 30
0.0
 70
   128
 71
    91
 72
    59
 73
    79
  0
VERTEX
  5
EAD
330
D75
100
AcDbEntity
  8
0
 62
     7
100
AcDbFaceRecord
 10
0.0
 20
0.0
 30
0.0
 70
   128
 71
    91
 72
    60
 73
    59
  0
VERTEX
  5
EAE
330
D75
100
AcDbEntity
  8
0
 62
     7
100
AcDbFaceRecord
 10
0.0
 20
0.0
 30
0.0
 70
   128
 71
    91
 72
    54
 73
    60
  0
VERTEX
  5
EAF
330
D75
100
AcDbEntity
  8
0
 62
     7
100
AcDbFaceRecord
 10
0.0
 20
0.0
 30
0.0
 70
   128
 71
    91
 72
    55
 73
    54
  0
VERTEX
  5
EB0
330
D75
100
AcDbEntity
  8
0
 62
     7
100
AcDbFaceRecord
 10
0.0
 20
0.0
 30
0.0
 70
   128
 71
    55
 72
    91
 73
    83
  0
VERTEX
  5
EB1
330
D75
100
AcDbEntity
  8
0
 62
     7
100
AcDbFaceRecord
 10
0.0
 20
0.0
 30
0.0
 70
   128
 71
    92
 72
    71
 73
    70
  0
VERTEX
  5
EB2
330
D75
100
AcDbEntity
  8
0
 62
     7
100
AcDbFaceRecord
 10
0.0
 20
0.0
 30
0.0
 70
   128
 71
    92
 72
    77
 73
    71
  0
VERTEX
  5
EB3
330
D75
100
AcDbEntity
  8
0
 62
     7
100
AcDbFaceRecord
 10
0.0
 20
0.0
 30
0.0
 70
   128
 71
    92
 72
    81
 73
    77
  0
VERTEX
  5
EB4
330
D75
100
AcDbEntity
  8
0
 62
     7
100
AcDbFaceRecord
 10
0.0
 20
0.0
 30
0.0
 70
   128
 71
    92
 72
    80
 73
    81
  0
VERTEX
  5
EB5
330
D75
100
AcDbEntity
  8
0
 62
     7
100
AcDbFaceRecord
 10
0.0
 20
0.0
 30
0.0
 70
   128
 71
    92
 72
    84
 73
    80
  0
VERTEX
  5
EB6
330
D75
100
AcDbEntity
  8
0
 62
     7
100
AcDbFaceRecord
 10
0.0
 20
0.0
 30
0.0
 70
   128
 71
    84
 72
    92
 73
    70
  0
VERTEX
  5
EB7
330
D75
100
AcDbEntity
  8
0
 62
     7
100
AcDbFaceRecord
 10
0.0
 20
0.0
 30
0.0
 70
   128
 71
    49
 72
    45
 73
    71
  0
VERTEX
  5
EB8
330
D75
100
AcDbEntity
  8
0
 62
     7
100
AcDbFaceRecord
 10
0.0
 20
0.0
 30
0.0
 70
   128
 71
    93
 72
    75
 73
    50
  0
VERTEX
  5
EB9
330
D75
100
AcDbEntity
  8
0
 62
     7
100
AcDbFaceRecord
 10
0.0
 20
0.0
 30
0.0
 70
   128
 71
    93
 72
    74
 73
    75
  0
VERTEX
  5
EBA
330
D75
100
AcDbEntity
  8
0
 62
     7
100
AcDbFaceRecord
 10
0.0
 20
0.0
 30
0.0
 70
   128
 71
    93
 72
    77
 73
    74
  0
VERTEX
  5
EBB
330
D75
100
AcDbEntity
  8
0
 62
     7
100
AcDbFaceRecord
 10
0.0
 20
0.0
 30
0.0
 70
   128
 71
    93
 72
    71
 73
    77
  0
VERTEX
  5
EBC
330
D75
100
AcDbEntity
  8
0
 62
     7
100
AcDbFaceRecord
 10
0.0
 20
0.0
 30
0.0
 70
   128
 71
    93
 72
    49
 73
    71
  0
VERTEX
  5
EBD
330
D75
100
AcDbEntity
  8
0
 62
     7
100
AcDbFaceRecord
 10
0.0
 20
0.0
 30
0.0
 70
   128
 71
    49
 72
    93
 73
    50
  0
VERTEX
  5
EBE
330
D75
100
AcDbEntity
  8
0
 62
     7
100
AcDbFaceRecord
 10
0.0
 20
0.0
 30
0.0
 70
   128
 71
    94
 72
    72
 73
    47
  0
VERTEX
  5
EBF
330
D75
100
AcDbEntity
  8
0
 62
     7
100
AcDbFaceRecord
 10
0.0
 20
0.0
 30
0.0
 70
   128
 71
    94
 72
    86
 73
    72
  0
VERTEX
  5
EC0
330
D75
100
AcDbEntity
  8
0
 62
     7
100
AcDbFaceRecord
 10
0.0
 20
0.0
 30
0.0
 70
   128
 71
    94
 72
    73
 73
    86
  0
VERTEX
  5
EC1
330
D75
100
AcDbEntity
  8
0
 62
     7
100
AcDbFaceRecord
 10
0.0
 20
0.0
 30
0.0
 70
   128
 71
    94
 72
    75
 73
    73
  0
VERTEX
  5
EC2
330
D75
100
AcDbEntity
  8
0
 62
     7
100
AcDbFaceRecord
 10
0.0
 20
0.0
 30
0.0
 70
   128
 71
    94
 72
    48
 73
    75
  0
VERTEX
  5
EC3
330
D75
100
AcDbEntity
  8
0
 62
     7
100
AcDbFaceRecord
 10
0.0
 20
0.0
 30
0.0
 70
   128
 71
    48
 72
    94
 73
    47
  0
VERTEX
  5
EC4
330
D75
100
AcDbEntity
  8
0
 62
     7
100
AcDbFaceRecord
 10
0.0
 20
0.0
 30
0.0
 70
   128
 71
    95
 72
    86
 73
    87
  0
VERTEX
  5
EC5
330
D75
100
AcDbEntity
  8
0
 62
     7
100
AcDbFaceRecord
 10
0.0
 20
0.0
 30
0.0
 70
   128
 71
    95
 72
    72
 73
    86
  0
VERTEX
  5
EC6
330
D75
100
AcDbEntity
  8
0
 62
     7
100
AcDbFaceRecord
 10
0.0
 20
0.0
 30
0.0
 70
   128
 71
    95
 72
     7
 73
    72
  0
VERTEX
  5
EC7
330
D75
100
AcDbEntity
  8
0
 62
     7
100
AcDbFaceRecord
 10
0.0
 20
0.0
 30
0.0
 70
   128
 71
    96
 72
    84
 73
    97
  0
VERTEX
  5
EC8
330
D75
100
AcDbEntity
  8
0
 62
     7
100
AcDbFaceRecord
 10
0.0
 20
0.0
 30
0.0
 70
   128
 71
    83
 72
    84
 73
    96
  0
VERTEX
  5
EC9
330
D75
100
AcDbEntity
  8
0
 62
     7
100
AcDbFaceRecord
 10
0.0
 20
0.0
 30
0.0
 70
   128
 71
    98
 72
    55
 73
    99
  0
VERTEX
  5
ECA
330
D75
100
AcDbEntity
  8
0
 62
     7
100
AcDbFaceRecord
 10
0.0
 20
0.0
 30
0.0
 70
   128
 71
    53
 72
    55
 73
    98
  0
VERTEX
  5
ECB
330
D75
100
AcDbEntity
  8
0
 62
     7
100
AcDbFaceRecord
 10
0.0
 20
0.0
 30
0.0
 70
   128
 71
     8
 72
    53
 73
   100
  0
VERTEX
  5
ECC
330
D75
100
AcDbEntity
  8
0
 62
     7
100
AcDbFaceRecord
 10
0.0
 20
0.0
 30
0.0
 70
   128
 71
    40
 72
     8
 73
   100
  0
VERTEX
  5
ECD
330
D75
100
AcDbEntity
  8
0
 62
     7
100
AcDbFaceRecord
 10
0.0
 20
0.0
 30
0.0
 70
   128
 71
   100
 72
    53
 73
    98
  0
VERTEX
  5
ECE
330
D75
100
AcDbEntity
  8
0
 62
     7
100
AcDbFaceRecord
 10
0.0
 20
0.0
 30
0.0
 70
   128
 71
    83
 72
    99
 73
    55
  0
VERTEX
  5
ECF
330
D75
100
AcDbEntity
  8
0
 62
     7
100
AcDbFaceRecord
 10
0.0
 20
0.0
 30
0.0
 70
   128
 71
    99
 72
    83
 73
    96
  0
VERTEX
  5
ED0
330
D75
100
AcDbEntity
  8
0
 62
     7
100
AcDbFaceRecord
 10
0.0
 20
0.0
 30
0.0
 70
   128
 71
    70
 72
    97
 73
    84
  0
VERTEX
  5
ED1
330
D75
100
AcDbEntity
  8
0
 62
     7
100
AcDbFaceRecord
 10
0.0
 20
0.0
 30
0.0
 70
   128
 71
    46
 72
    97
 73
    70
  0
VERTEX
  5
ED2
330
D75
100
AcDbEntity
  8
0
 62
     7
100
AcDbFaceRecord
 10
0.0
 20
0.0
 30
0.0
 70
   128
 71
    45
 72
    46
 73
    70
  0
VERTEX
  5
ED3
330
D75
100
AcDbEntity
  8
0
 62
     7
100
AcDbFaceRecord
 10
0.0
 20
0.0
 30
0.0
 70
   128
 71
   101
 72
    96
 73
   102
  0
VERTEX
  5
ED4
330
D75
100
AcDbEntity
  8
0
 62
     7
100
AcDbFaceRecord
 10
0.0
 20
0.0
 30
0.0
 70
   128
 71
    99
 72
    96
 73
   101
  0
VERTEX
  5
ED5
330
D75
100
AcDbEntity
  8
0
 62
     7
100
AcDbFaceRecord
 10
0.0
 20
0.0
 30
0.0
 70
   128
 71
   103
 72
    98
 73
   104
  0
VERTEX
  5
ED6
330
D75
100
AcDbEntity
  8
0
 62
     7
100
AcDbFaceRecord
 10
0.0
 20
0.0
 30
0.0
 70
   128
 71
   100
 72
    98
 73
   103
  0
VERTEX
  5
ED7
330
D75
100
AcDbEntity
  8
0
 62
     7
100
AcDbFaceRecord
 10
0.0
 20
0.0
 30
0.0
 70
   128
 71
    40
 72
   100
 73
   105
  0
VERTEX
  5
ED8
330
D75
100
AcDbEntity
  8
0
 62
     7
100
AcDbFaceRecord
 10
0.0
 20
0.0
 30
0.0
 70
   128
 71
     6
 72
    40
 73
   105
  0
VERTEX
  5
ED9
330
D75
100
AcDbEntity
  8
0
 62
     7
100
AcDbFaceRecord
 10
0.0
 20
0.0
 30
0.0
 70
   128
 71
   105
 72
   100
 73
   103
  0
VERTEX
  5
EDA
330
D75
100
AcDbEntity
  8
0
 62
     7
100
AcDbFaceRecord
 10
0.0
 20
0.0
 30
0.0
 70
   128
 71
    99
 72
   104
 73
    98
  0
VERTEX
  5
EDB
330
D75
100
AcDbEntity
  8
0
 62
     7
100
AcDbFaceRecord
 10
0.0
 20
0.0
 30
0.0
 70
   128
 71
   104
 72
    99
 73
   101
  0
VERTEX
  5
EDC
330
D75
100
AcDbEntity
  8
0
 62
     7
100
AcDbFaceRecord
 10
0.0
 20
0.0
 30
0.0
 70
   128
 71
    97
 72
   102
 73
    96
  0
VERTEX
  5
EDD
330
D75
100
AcDbEntity
  8
0
 62
     7
100
AcDbFaceRecord
 10
0.0
 20
0.0
 30
0.0
 70
   128
 71
     4
 72
   102
 73
    97
  0
VERTEX
  5
EDE
330
D75
100
AcDbEntity
  8
0
 62
     7
100
AcDbFaceRecord
 10
0.0
 20
0.0
 30
0.0
 70
   128
 71
    46
 72
     4
 73
    97
  0
VERTEX
  5
EDF
330
D75
100
AcDbEntity
  8
0
 62
     7
100
AcDbFaceRecord
 10
0.0
 20
0.0
 30
0.0
 70
   128
 71
   106
 72
   101
 73
   107
  0
VERTEX
  5
EE0
330
D75
100
AcDbEntity
  8
0
 62
     7
100
AcDbFaceRecord
 10
0.0
 20
0.0
 30
0.0
 70
   128
 71
   104
 72
   101
 73
   106
  0
VERTEX
  5
EE1
330
D75
100
AcDbEntity
  8
0
 62
     7
100
AcDbFaceRecord
 10
0.0
 20
0.0
 30
0.0
 70
   128
 71
   108
 72
   103
 73
   109
  0
VERTEX
  5
EE2
330
D75
100
AcDbEntity
  8
0
 62
     7
100
AcDbFaceRecord
 10
0.0
 20
0.0
 30
0.0
 70
   128
 71
   105
 72
   103
 73
   108
  0
VERTEX
  5
EE3
330
D75
100
AcDbEntity
  8
0
 62
     7
100
AcDbFaceRecord
 10
0.0
 20
0.0
 30
0.0
 70
   128
 71
     6
 72
   105
 73
   110
  0
VERTEX
  5
EE4
330
D75
100
AcDbEntity
  8
0
 62
     7
100
AcDbFaceRecord
 10
0.0
 20
0.0
 30
0.0
 70
   128
 71
    19
 72
     6
 73
   110
  0
VERTEX
  5
EE5
330
D75
100
AcDbEntity
  8
0
 62
     7
100
AcDbFaceRecord
 10
0.0
 20
0.0
 30
0.0
 70
   128
 71
   110
 72
   105
 73
   108
  0
VERTEX
  5
EE6
330
D75
100
AcDbEntity
  8
0
 62
     7
100
AcDbFaceRecord
 10
0.0
 20
0.0
 30
0.0
 70
   128
 71
   104
 72
   109
 73
   103
  0
VERTEX
  5
EE7
330
D75
100
AcDbEntity
  8
0
 62
     7
100
AcDbFaceRecord
 10
0.0
 20
0.0
 30
0.0
 70
   128
 71
   109
 72
   104
 73
   106
  0
VERTEX
  5
EE8
330
D75
100
AcDbEntity
  8
0
 62
     7
100
AcDbFaceRecord
 10
0.0
 20
0.0
 30
0.0
 70
   128
 71
   102
 72
   107
 73
   101
  0
VERTEX
  5
EE9
330
D75
100
AcDbEntity
  8
0
 62
     7
100
AcDbFaceRecord
 10
0.0
 20
0.0
 30
0.0
 70
   128
 71
     9
 72
   107
 73
   102
  0
VERTEX
  5
EEA
330
D75
100
AcDbEntity
  8
0
 62
     7
100
AcDbFaceRecord
 10
0.0
 20
0.0
 30
0.0
 70
   128
 71
     4
 72
     9
 73
   102
  0
VERTEX
  5
EEB
330
D75
100
AcDbEntity
  8
0
 62
     7
100
AcDbFaceRecord
 10
0.0
 20
0.0
 30
0.0
 70
   128
 71
   111
 72
   106
 73
   112
  0
VERTEX
  5
EEC
330
D75
100
AcDbEntity
  8
0
 62
     7
100
AcDbFaceRecord
 10
0.0
 20
0.0
 30
0.0
 70
   128
 71
   109
 72
   106
 73
   111
  0
VERTEX
  5
EED
330
D75
100
AcDbEntity
  8
0
 62
     7
100
AcDbFaceRecord
 10
0.0
 20
0.0
 30
0.0
 70
   128
 71
   113
 72
   108
 73
   114
  0
VERTEX
  5
EEE
330
D75
100
AcDbEntity
  8
0
 62
     7
100
AcDbFaceRecord
 10
0.0
 20
0.0
 30
0.0
 70
   128
 71
   110
 72
   108
 73
   113
  0
VERTEX
  5
EEF
330
D75
100
AcDbEntity
  8
0
 62
     7
100
AcDbFaceRecord
 10
0.0
 20
0.0
 30
0.0
 70
   128
 71
    19
 72
   110
 73
   115
  0
VERTEX
  5
EF0
330
D75
100
AcDbEntity
  8
0
 62
     7
100
AcDbFaceRecord
 10
0.0
 20
0.0
 30
0.0
 70
   128
 71
    39
 72
    19
 73
   115
  0
VERTEX
  5
EF1
330
D75
100
AcDbEntity
  8
0
 62
     7
100
AcDbFaceRecord
 10
0.0
 20
0.0
 30
0.0
 70
   128
 71
   115
 72
   110
 73
   113
  0
VERTEX
  5
EF2
330
D75
100
AcDbEntity
  8
0
 62
     7
100
AcDbFaceRecord
 10
0.0
 20
0.0
 30
0.0
 70
   128
 71
   109
 72
   114
 73
   108
  0
VERTEX
  5
EF3
330
D75
100
AcDbEntity
  8
0
 62
     7
100
AcDbFaceRecord
 10
0.0
 20
0.0
 30
0.0
 70
   128
 71
   114
 72
   109
 73
   111
  0
VERTEX
  5
EF4
330
D75
100
AcDbEntity
  8
0
 62
     7
100
AcDbFaceRecord
 10
0.0
 20
0.0
 30
0.0
 70
   128
 71
   107
 72
   112
 73
   106
  0
VERTEX
  5
EF5
330
D75
100
AcDbEntity
  8
0
 62
     7
100
AcDbFaceRecord
 10
0.0
 20
0.0
 30
0.0
 70
   128
 71
    12
 72
   112
 73
   107
  0
VERTEX
  5
EF6
330
D75
100
AcDbEntity
  8
0
 62
     7
100
AcDbFaceRecord
 10
0.0
 20
0.0
 30
0.0
 70
   128
 71
     9
 72
    12
 73
   107
  0
VERTEX
  5
EF7
330
D75
100
AcDbEntity
  8
0
 62
     7
100
AcDbFaceRecord
 10
0.0
 20
0.0
 30
0.0
 70
   128
 71
   116
 72
   111
 73
   117
  0
VERTEX
  5
EF8
330
D75
100
AcDbEntity
  8
0
 62
     7
100
AcDbFaceRecord
 10
0.0
 20
0.0
 30
0.0
 70
   128
 71
   114
 72
   111
 73
   116
  0
VERTEX
  5
EF9
330
D75
100
AcDbEntity
  8
0
 62
     7
100
AcDbFaceRecord
 10
0.0
 20
0.0
 30
0.0
 70
   128
 71
   118
 72
   113
 73
   119
  0
VERTEX
  5
EFA
330
D75
100
AcDbEntity
  8
0
 62
     7
100
AcDbFaceRecord
 10
0.0
 20
0.0
 30
0.0
 70
   128
 71
   115
 72
   113
 73
   118
  0
VERTEX
  5
EFB
330
D75
100
AcDbEntity
  8
0
 62
     7
100
AcDbFaceRecord
 10
0.0
 20
0.0
 30
0.0
 70
   128
 71
    39
 72
   115
 73
   120
  0
VERTEX
  5
EFC
330
D75
100
AcDbEntity
  8
0
 62
     7
100
AcDbFaceRecord
 10
0.0
 20
0.0
 30
0.0
 70
   128
 71
    32
 72
    39
 73
   120
  0
VERTEX
  5
EFD
330
D75
100
AcDbEntity
  8
0
 62
     7
100
AcDbFaceRecord
 10
0.0
 20
0.0
 30
0.0
 70
   128
 71
   120
 72
   115
 73
   118
  0
VERTEX
  5
EFE
330
D75
100
AcDbEntity
  8
0
 62
     7
100
AcDbFaceRecord
 10
0.0
 20
0.0
 30
0.0
 70
   128
 71
   114
 72
   119
 73
   113
  0
VERTEX
  5
EFF
330
D75
100
AcDbEntity
  8
0
 62
     7
100
AcDbFaceRecord
 10
0.0
 20
0.0
 30
0.0
 70
   128
 71
   119
 72
   114
 73
   116
  0
VERTEX
  5
F00
330
D75
100
AcDbEntity
  8
0
 62
     7
100
AcDbFaceRecord
 10
0.0
 20
0.0
 30
0.0
 70
   128
 71
   112
 72
   117
 73
   111
  0
VERTEX
  5
F01
330
D75
100
AcDbEntity
  8
0
 62
     7
100
AcDbFaceRecord
 10
0.0
 20
0.0
 30
0.0
 70
   128
 71
    11
 72
   117
 73
   112
  0
VERTEX
  5
F02
330
D75
100
AcDbEntity
  8
0
 62
     7
100
AcDbFaceRecord
 10
0.0
 20
0.0
 30
0.0
 70
   128
 71
    12
 72
    11
 73
   112
  0
VERTEX
  5
F03
330
D75
100
AcDbEntity
  8
0
 62
     7
100
AcDbFaceRecord
 10
0.0
 20
0.0
 30
0.0
 70
   128
 71
    37
 72
   121
 73
    38
  0
VERTEX
  5
F04
330
D75
100
AcDbEntity
  8
0
 62
     7
100
AcDbFaceRecord
 10
0.0
 20
0.0
 30
0.0
 70
   128
 71
    36
 72
   122
 73
    35
  0
VERTEX
  5
F05
330
D75
100
AcDbEntity
  8
0
 62
     7
100
AcDbFaceRecord
 10
0.0
 20
0.0
 30
0.0
 70
   128
 71
   123
 72
   124
 73
   125
  0
VERTEX
  5
F06
330
D75
100
AcDbEntity
  8
0
 62
     7
100
AcDbFaceRecord
 10
0.0
 20
0.0
 30
0.0
 70
   128
 71
   121
 72
   126
 73
   127
  0
VERTEX
  5
F07
330
D75
100
AcDbEntity
  8
0
 62
     7
100
AcDbFaceRecord
 10
0.0
 20
0.0
 30
0.0
 70
   128
 71
   128
 72
   127
 73
   126
  0
VERTEX
  5
F08
330
D75
100
AcDbEntity
  8
0
 62
     7
100
AcDbFaceRecord
 10
0.0
 20
0.0
 30
0.0
 70
   128
 71
   128
 72
   129
 73
   127
  0
VERTEX
  5
F09
330
D75
100
AcDbEntity
  8
0
 62
     7
100
AcDbFaceRecord
 10
0.0
 20
0.0
 30
0.0
 70
   128
 71
   122
 72
   130
 73
   124
  0
VERTEX
  5
F0A
330
D75
100
AcDbEntity
  8
0
 62
     7
100
AcDbFaceRecord
 10
0.0
 20
0.0
 30
0.0
 70
   128
 71
   118
 72
   131
 73
   120
  0
VERTEX
  5
F0B
330
D75
100
AcDbEntity
  8
0
 62
     7
100
AcDbFaceRecord
 10
0.0
 20
0.0
 30
0.0
 70
   128
 71
   118
 72
   132
 73
   131
  0
VERTEX
  5
F0C
330
D75
100
AcDbEntity
  8
0
 62
     7
100
AcDbFaceRecord
 10
0.0
 20
0.0
 30
0.0
 70
   128
 71
   133
 72
   131
 73
   132
  0
VERTEX
  5
F0D
330
D75
100
AcDbEntity
  8
0
 62
     7
100
AcDbFaceRecord
 10
0.0
 20
0.0
 30
0.0
 70
   128
 71
   133
 72
   126
 73
   131
  0
VERTEX
  5
F0E
330
D75
100
AcDbEntity
  8
0
 62
     7
100
AcDbFaceRecord
 10
0.0
 20
0.0
 30
0.0
 70
   128
 71
   133
 72
   128
 73
   126
  0
VERTEX
  5
F0F
330
D75
100
AcDbEntity
  8
0
 62
     7
100
AcDbFaceRecord
 10
0.0
 20
0.0
 30
0.0
 70
   128
 71
   134
 72
   133
 73
   132
  0
VERTEX
  5
F10
330
D75
100
AcDbEntity
  8
0
 62
     7
100
AcDbFaceRecord
 10
0.0
 20
0.0
 30
0.0
 70
   128
 71
   130
 72
   127
 73
   129
  0
VERTEX
  5
F11
330
D75
100
AcDbEntity
  8
0
 62
     7
100
AcDbFaceRecord
 10
0.0
 20
0.0
 30
0.0
 70
   128
 71
   135
 72
   129
 73
   128
  0
VERTEX
  5
F12
330
D75
100
AcDbEntity
  8
0
 62
     7
100
AcDbFaceRecord
 10
0.0
 20
0.0
 30
0.0
 70
   128
 71
   136
 72
   137
 73
   134
  0
VERTEX
  5
F13
330
D75
100
AcDbEntity
  8
0
 62
     7
100
AcDbFaceRecord
 10
0.0
 20
0.0
 30
0.0
 70
   128
 71
    15
 72
   138
 73
   139
  0
VERTEX
  5
F14
330
D75
100
AcDbEntity
  8
0
 62
     7
100
AcDbFaceRecord
 10
0.0
 20
0.0
 30
0.0
 70
   128
 71
    11
 72
    14
 73
   140
  0
VERTEX
  5
F15
330
D75
100
AcDbEntity
  8
0
 62
     7
100
AcDbFaceRecord
 10
0.0
 20
0.0
 30
0.0
 70
   128
 71
   141
 72
   142
 73
   137
  0
VERTEX
  5
F16
330
D75
100
AcDbEntity
  8
0
 62
     7
100
AcDbFaceRecord
 10
0.0
 20
0.0
 30
0.0
 70
   128
 71
   141
 72
   143
 73
   142
  0
VERTEX
  5
F17
330
D75
100
AcDbEntity
  8
0
 62
     7
100
AcDbFaceRecord
 10
0.0
 20
0.0
 30
0.0
 70
   128
 71
    16
 72
    17
 73
   143
  0
VERTEX
  5
F18
330
D75
100
AcDbEntity
  8
0
 62
     7
100
AcDbFaceRecord
 10
0.0
 20
0.0
 30
0.0
 70
   128
 71
   136
 72
   134
 73
   132
  0
VERTEX
  5
F19
330
D75
100
AcDbEntity
  8
0
 62
     7
100
AcDbFaceRecord
 10
0.0
 20
0.0
 30
0.0
 70
   128
 71
   144
 72
   142
 73
   145
  0
VERTEX
  5
F1A
330
D75
100
AcDbEntity
  8
0
 62
     7
100
AcDbFaceRecord
 10
0.0
 20
0.0
 30
0.0
 70
   128
 71
   144
 72
   137
 73
   142
  0
VERTEX
  5
F1B
330
D75
100
AcDbEntity
  8
0
 62
     7
100
AcDbFaceRecord
 10
0.0
 20
0.0
 30
0.0
 70
   128
 71
   144
 72
   134
 73
   137
  0
VERTEX
  5
F1C
330
D75
100
AcDbEntity
  8
0
 62
     7
100
AcDbFaceRecord
 10
0.0
 20
0.0
 30
0.0
 70
   128
 71
   146
 72
   133
 73
   134
  0
VERTEX
  5
F1D
330
D75
100
AcDbEntity
  8
0
 62
     7
100
AcDbFaceRecord
 10
0.0
 20
0.0
 30
0.0
 70
   128
 71
   146
 72
   128
 73
   133
  0
VERTEX
  5
F1E
330
D75
100
AcDbEntity
  8
0
 62
     7
100
AcDbFaceRecord
 10
0.0
 20
0.0
 30
0.0
 70
   128
 71
   146
 72
   135
 73
   128
  0
VERTEX
  5
F1F
330
D75
100
AcDbEntity
  8
0
 62
     7
100
AcDbFaceRecord
 10
0.0
 20
0.0
 30
0.0
 70
   128
 71
   146
 72
   134
 73
   144
  0
VERTEX
  5
F20
330
D75
100
AcDbEntity
  8
0
 62
     7
100
AcDbFaceRecord
 10
0.0
 20
0.0
 30
0.0
 70
   128
 71
   147
 72
   135
 73
   148
  0
VERTEX
  5
F21
330
D75
100
AcDbEntity
  8
0
 62
     7
100
AcDbFaceRecord
 10
0.0
 20
0.0
 30
0.0
 70
   128
 71
   147
 72
   129
 73
   135
  0
VERTEX
  5
F22
330
D75
100
AcDbEntity
  8
0
 62
     7
100
AcDbFaceRecord
 10
0.0
 20
0.0
 30
0.0
 70
   128
 71
   149
 72
   144
 73
   145
  0
VERTEX
  5
F23
330
D75
100
AcDbEntity
  8
0
 62
     7
100
AcDbFaceRecord
 10
0.0
 20
0.0
 30
0.0
 70
   128
 71
   149
 72
   146
 73
   144
  0
VERTEX
  5
F24
330
D75
100
AcDbEntity
  8
0
 62
     7
100
AcDbFaceRecord
 10
0.0
 20
0.0
 30
0.0
 70
   128
 71
   149
 72
   135
 73
   146
  0
VERTEX
  5
F25
330
D75
100
AcDbEntity
  8
0
 62
     7
100
AcDbFaceRecord
 10
0.0
 20
0.0
 30
0.0
 70
   128
 71
   149
 72
   148
 73
   135
  0
VERTEX
  5
F26
330
D75
100
AcDbEntity
  8
0
 62
     7
100
AcDbFaceRecord
 10
0.0
 20
0.0
 30
0.0
 70
   128
 71
   119
 72
   136
 73
   132
  0
VERTEX
  5
F27
330
D75
100
AcDbEntity
  8
0
 62
     7
100
AcDbFaceRecord
 10
0.0
 20
0.0
 30
0.0
 70
   128
 71
   150
 72
   148
 73
   151
  0
VERTEX
  5
F28
330
D75
100
AcDbEntity
  8
0
 62
     7
100
AcDbFaceRecord
 10
0.0
 20
0.0
 30
0.0
 70
   128
 71
   150
 72
   147
 73
   148
  0
VERTEX
  5
F29
330
D75
100
AcDbEntity
  8
0
 62
     7
100
AcDbFaceRecord
 10
0.0
 20
0.0
 30
0.0
 70
   128
 71
   152
 72
   136
 73
   119
  0
VERTEX
  5
F2A
330
D75
100
AcDbEntity
  8
0
 62
     7
100
AcDbFaceRecord
 10
0.0
 20
0.0
 30
0.0
 70
   128
 71
   152
 72
   137
 73
   136
  0
VERTEX
  5
F2B
330
D75
100
AcDbEntity
  8
0
 62
     7
100
AcDbFaceRecord
 10
0.0
 20
0.0
 30
0.0
 70
   128
 71
   152
 72
   141
 73
   137
  0
VERTEX
  5
F2C
330
D75
100
AcDbEntity
  8
0
 62
     7
100
AcDbFaceRecord
 10
0.0
 20
0.0
 30
0.0
 70
   128
 71
   152
 72
   153
 73
   141
  0
VERTEX
  5
F2D
330
D75
100
AcDbEntity
  8
0
 62
     7
100
AcDbFaceRecord
 10
0.0
 20
0.0
 30
0.0
 70
   128
 71
   152
 72
   116
 73
   153
  0
VERTEX
  5
F2E
330
D75
100
AcDbEntity
  8
0
 62
     7
100
AcDbFaceRecord
 10
0.0
 20
0.0
 30
0.0
 70
   128
 71
   116
 72
   152
 73
   119
  0
VERTEX
  5
F2F
330
D75
100
AcDbEntity
  8
0
 62
     7
100
AcDbFaceRecord
 10
0.0
 20
0.0
 30
0.0
 70
   128
 71
   119
 72
   132
 73
   118
  0
VERTEX
  5
F30
330
D75
100
AcDbEntity
  8
0
 62
     7
100
AcDbFaceRecord
 10
0.0
 20
0.0
 30
0.0
 70
   128
 71
   154
 72
   121
 73
    37
  0
VERTEX
  5
F31
330
D75
100
AcDbEntity
  8
0
 62
     7
100
AcDbFaceRecord
 10
0.0
 20
0.0
 30
0.0
 70
   128
 71
   154
 72
   126
 73
   121
  0
VERTEX
  5
F32
330
D75
100
AcDbEntity
  8
0
 62
     7
100
AcDbFaceRecord
 10
0.0
 20
0.0
 30
0.0
 70
   128
 71
   154
 72
   131
 73
   126
  0
VERTEX
  5
F33
330
D75
100
AcDbEntity
  8
0
 62
     7
100
AcDbFaceRecord
 10
0.0
 20
0.0
 30
0.0
 70
   128
 71
   154
 72
   120
 73
   131
  0
VERTEX
  5
F34
330
D75
100
AcDbEntity
  8
0
 62
     7
100
AcDbFaceRecord
 10
0.0
 20
0.0
 30
0.0
 70
   128
 71
    32
 72
   120
 73
   154
  0
VERTEX
  5
F35
330
D75
100
AcDbEntity
  8
0
 62
     7
100
AcDbFaceRecord
 10
0.0
 20
0.0
 30
0.0
 70
   128
 71
    32
 72
   154
 73
    37
  0
VERTEX
  5
F36
330
D75
100
AcDbEntity
  8
0
 62
     7
100
AcDbFaceRecord
 10
0.0
 20
0.0
 30
0.0
 70
   128
 71
   155
 72
   122
 73
    36
  0
VERTEX
  5
F37
330
D75
100
AcDbEntity
  8
0
 62
     7
100
AcDbFaceRecord
 10
0.0
 20
0.0
 30
0.0
 70
   128
 71
   155
 72
   130
 73
   122
  0
VERTEX
  5
F38
330
D75
100
AcDbEntity
  8
0
 62
     7
100
AcDbFaceRecord
 10
0.0
 20
0.0
 30
0.0
 70
   128
 71
   155
 72
   127
 73
   130
  0
VERTEX
  5
F39
330
D75
100
AcDbEntity
  8
0
 62
     7
100
AcDbFaceRecord
 10
0.0
 20
0.0
 30
0.0
 70
   128
 71
   155
 72
   121
 73
   127
  0
VERTEX
  5
F3A
330
D75
100
AcDbEntity
  8
0
 62
     7
100
AcDbFaceRecord
 10
0.0
 20
0.0
 30
0.0
 70
   128
 71
   155
 72
    38
 73
   121
  0
VERTEX
  5
F3B
330
D75
100
AcDbEntity
  8
0
 62
     7
100
AcDbFaceRecord
 10
0.0
 20
0.0
 30
0.0
 70
   128
 71
    38
 72
   155
 73
    36
  0
VERTEX
  5
F3C
330
D75
100
AcDbEntity
  8
0
 62
     7
100
AcDbFaceRecord
 10
0.0
 20
0.0
 30
0.0
 70
   128
 71
   156
 72
   124
 73
   123
  0
VERTEX
  5
F3D
330
D75
100
AcDbEntity
  8
0
 62
     7
100
AcDbFaceRecord
 10
0.0
 20
0.0
 30
0.0
 70
   128
 71
   156
 72
   122
 73
   124
  0
VERTEX
  5
F3E
330
D75
100
AcDbEntity
  8
0
 62
     7
100
AcDbFaceRecord
 10
0.0
 20
0.0
 30
0.0
 70
   128
 71
   156
 72
    35
 73
   122
  0
VERTEX
  5
F3F
330
D75
100
AcDbEntity
  8
0
 62
     7
100
AcDbFaceRecord
 10
0.0
 20
0.0
 30
0.0
 70
   128
 71
    34
 72
    35
 73
   156
  0
VERTEX
  5
F40
330
D75
100
AcDbEntity
  8
0
 62
     7
100
AcDbFaceRecord
 10
0.0
 20
0.0
 30
0.0
 70
   128
 71
    34
 72
   156
 73
   123
  0
VERTEX
  5
F41
330
D75
100
AcDbEntity
  8
0
 62
     7
100
AcDbFaceRecord
 10
0.0
 20
0.0
 30
0.0
 70
   128
 71
   157
 72
   147
 73
   150
  0
VERTEX
  5
F42
330
D75
100
AcDbEntity
  8
0
 62
     7
100
AcDbFaceRecord
 10
0.0
 20
0.0
 30
0.0
 70
   128
 71
   157
 72
   129
 73
   147
  0
VERTEX
  5
F43
330
D75
100
AcDbEntity
  8
0
 62
     7
100
AcDbFaceRecord
 10
0.0
 20
0.0
 30
0.0
 70
   128
 71
   157
 72
   130
 73
   129
  0
VERTEX
  5
F44
330
D75
100
AcDbEntity
  8
0
 62
     7
100
AcDbFaceRecord
 10
0.0
 20
0.0
 30
0.0
 70
   128
 71
   157
 72
   124
 73
   130
  0
VERTEX
  5
F45
330
D75
100
AcDbEntity
  8
0
 62
     7
100
AcDbFaceRecord
 10
0.0
 20
0.0
 30
0.0
 70
   128
 71
   157
 72
   125
 73
   124
  0
VERTEX
  5
F46
330
D75
100
AcDbEntity
  8
0
 62
     7
100
AcDbFaceRecord
 10
0.0
 20
0.0
 30
0.0
 70
   128
 71
   125
 72
   157
 73
   150
  0
VERTEX
  5
F47
330
D75
100
AcDbEntity
  8
0
 62
     7
100
AcDbFaceRecord
 10
0.0
 20
0.0
 30
0.0
 70
   128
 71
   158
 72
   139
 73
   138
  0
VERTEX
  5
F48
330
D75
100
AcDbEntity
  8
0
 62
     7
100
AcDbFaceRecord
 10
0.0
 20
0.0
 30
0.0
 70
   128
 71
   158
 72
   145
 73
   139
  0
VERTEX
  5
F49
330
D75
100
AcDbEntity
  8
0
 62
     7
100
AcDbFaceRecord
 10
0.0
 20
0.0
 30
0.0
 70
   128
 71
   158
 72
   149
 73
   145
  0
VERTEX
  5
F4A
330
D75
100
AcDbEntity
  8
0
 62
     7
100
AcDbFaceRecord
 10
0.0
 20
0.0
 30
0.0
 70
   128
 71
   158
 72
   148
 73
   149
  0
VERTEX
  5
F4B
330
D75
100
AcDbEntity
  8
0
 62
     7
100
AcDbFaceRecord
 10
0.0
 20
0.0
 30
0.0
 70
   128
 71
   158
 72
   151
 73
   148
  0
VERTEX
  5
F4C
330
D75
100
AcDbEntity
  8
0
 62
     7
100
AcDbFaceRecord
 10
0.0
 20
0.0
 30
0.0
 70
   128
 71
   151
 72
   158
 73
   138
  0
VERTEX
  5
F4D
330
D75
100
AcDbEntity
  8
0
 62
     7
100
AcDbFaceRecord
 10
0.0
 20
0.0
 30
0.0
 70
   128
 71
    13
 72
    15
 73
   139
  0
VERTEX
  5
F4E
330
D75
100
AcDbEntity
  8
0
 62
     7
100
AcDbFaceRecord
 10
0.0
 20
0.0
 30
0.0
 70
   128
 71
   159
 72
   143
 73
    17
  0
VERTEX
  5
F4F
330
D75
100
AcDbEntity
  8
0
 62
     7
100
AcDbFaceRecord
 10
0.0
 20
0.0
 30
0.0
 70
   128
 71
   159
 72
   142
 73
   143
  0
VERTEX
  5
F50
330
D75
100
AcDbEntity
  8
0
 62
     7
100
AcDbFaceRecord
 10
0.0
 20
0.0
 30
0.0
 70
   128
 71
   159
 72
   145
 73
   142
  0
VERTEX
  5
F51
330
D75
100
AcDbEntity
  8
0
 62
     7
100
AcDbFaceRecord
 10
0.0
 20
0.0
 30
0.0
 70
   128
 71
   159
 72
   139
 73
   145
  0
VERTEX
  5
F52
330
D75
100
AcDbEntity
  8
0
 62
     7
100
AcDbFaceRecord
 10
0.0
 20
0.0
 30
0.0
 70
   128
 71
   159
 72
    13
 73
   139
  0
VERTEX
  5
F53
330
D75
100
AcDbEntity
  8
0
 62
     7
100
AcDbFaceRecord
 10
0.0
 20
0.0
 30
0.0
 70
   128
 71
    13
 72
   159
 73
    17
  0
VERTEX
  5
F54
330
D75
100
AcDbEntity
  8
0
 62
     7
100
AcDbFaceRecord
 10
0.0
 20
0.0
 30
0.0
 70
   128
 71
   160
 72
   140
 73
    14
  0
VERTEX
  5
F55
330
D75
100
AcDbEntity
  8
0
 62
     7
100
AcDbFaceRecord
 10
0.0
 20
0.0
 30
0.0
 70
   128
 71
   160
 72
   153
 73
   140
  0
VERTEX
  5
F56
330
D75
100
AcDbEntity
  8
0
 62
     7
100
AcDbFaceRecord
 10
0.0
 20
0.0
 30
0.0
 70
   128
 71
   160
 72
   141
 73
   153
  0
VERTEX
  5
F57
330
D75
100
AcDbEntity
  8
0
 62
     7
100
AcDbFaceRecord
 10
0.0
 20
0.0
 30
0.0
 70
   128
 71
   160
 72
   143
 73
   141
  0
VERTEX
  5
F58
330
D75
100
AcDbEntity
  8
0
 62
     7
100
AcDbFaceRecord
 10
0.0
 20
0.0
 30
0.0
 70
   128
 71
   160
 72
    16
 73
   143
  0
VERTEX
  5
F59
330
D75
100
AcDbEntity
  8
0
 62
     7
100
AcDbFaceRecord
 10
0.0
 20
0.0
 30
0.0
 70
   128
 71
    16
 72
   160
 73
    14
  0
VERTEX
  5
F5A
330
D75
100
AcDbEntity
  8
0
 62
     7
100
AcDbFaceRecord
 10
0.0
 20
0.0
 30
0.0
 70
   128
 71
   117
 72
   153
 73
   116
  0
VERTEX
  5
F5B
330
D75
100
AcDbEntity
  8
0
 62
     7
100
AcDbFaceRecord
 10
0.0
 20
0.0
 30
0.0
 70
   128
 71
   117
 72
   140
 73
   153
  0
VERTEX
  5
F5C
330
D75
100
AcDbEntity
  8
0
 62
     7
100
AcDbFaceRecord
 10
0.0
 20
0.0
 30
0.0
 70
   128
 71
   117
 72
    11
 73
   140
  0
VERTEX
  5
F5D
330
D75
100
AcDbEntity
  8
0
 62
     7
100
AcDbFaceRecord
 10
0.0
 20
0.0
 30
0.0
 70
   128
 71
   151
 72
   161
 73
   162
  0
VERTEX
  5
F5E
330
D75
100
AcDbEntity
  8
0
 62
     7
100
AcDbFaceRecord
 10
0.0
 20
0.0
 30
0.0
 70
   128
 71
    18
 72
    10
 73
   161
  0
VERTEX
  5
F5F
330
D75
100
AcDbEntity
  8
0
 62
     7
100
AcDbFaceRecord
 10
0.0
 20
0.0
 30
0.0
 70
   128
 71
   150
 72
   151
 73
   162
  0
VERTEX
  5
F60
330
D75
100
AcDbEntity
  8
0
 62
     7
100
AcDbFaceRecord
 10
0.0
 20
0.0
 30
0.0
 70
   128
 71
   163
 72
   164
 73
   165
  0
VERTEX
  5
F61
330
D75
100
AcDbEntity
  8
0
 62
     7
100
AcDbFaceRecord
 10
0.0
 20
0.0
 30
0.0
 70
   128
 71
    20
 72
   166
 73
     2
  0
VERTEX
  5
F62
330
D75
100
AcDbEntity
  8
0
 62
     7
100
AcDbFaceRecord
 10
0.0
 20
0.0
 30
0.0
 70
   128
 71
   167
 72
   168
 73
   169
  0
VERTEX
  5
F63
330
D75
100
AcDbEntity
  8
0
 62
     7
100
AcDbFaceRecord
 10
0.0
 20
0.0
 30
0.0
 70
   128
 71
   125
 72
   170
 73
   123
  0
VERTEX
  5
F64
330
D75
100
AcDbEntity
  8
0
 62
     7
100
AcDbFaceRecord
 10
0.0
 20
0.0
 30
0.0
 70
   128
 71
   171
 72
   167
 73
   172
  0
VERTEX
  5
F65
330
D75
100
AcDbEntity
  8
0
 62
     7
100
AcDbFaceRecord
 10
0.0
 20
0.0
 30
0.0
 70
   128
 71
   171
 72
   168
 73
   167
  0
VERTEX
  5
F66
330
D75
100
AcDbEntity
  8
0
 62
     7
100
AcDbFaceRecord
 10
0.0
 20
0.0
 30
0.0
 70
   128
 71
   173
 72
   172
 73
   174
  0
VERTEX
  5
F67
330
D75
100
AcDbEntity
  8
0
 62
     7
100
AcDbFaceRecord
 10
0.0
 20
0.0
 30
0.0
 70
   128
 71
   175
 72
   164
 73
   176
  0
VERTEX
  5
F68
330
D75
100
AcDbEntity
  8
0
 62
     7
100
AcDbFaceRecord
 10
0.0
 20
0.0
 30
0.0
 70
   128
 71
   170
 72
   177
 73
   178
  0
VERTEX
  5
F69
330
D75
100
AcDbEntity
  8
0
 62
     7
100
AcDbFaceRecord
 10
0.0
 20
0.0
 30
0.0
 70
   128
 71
   176
 72
   167
 73
   169
  0
VERTEX
  5
F6A
330
D75
100
AcDbEntity
  8
0
 62
     7
100
AcDbFaceRecord
 10
0.0
 20
0.0
 30
0.0
 70
   128
 71
   179
 72
   166
 73
   180
  0
VERTEX
  5
F6B
330
D75
100
AcDbEntity
  8
0
 62
     7
100
AcDbFaceRecord
 10
0.0
 20
0.0
 30
0.0
 70
   128
 71
   177
 72
   179
 73
   180
  0
VERTEX
  5
F6C
330
D75
100
AcDbEntity
  8
0
 62
     7
100
AcDbFaceRecord
 10
0.0
 20
0.0
 30
0.0
 70
   128
 71
   181
 72
   178
 73
   177
  0
VERTEX
  5
F6D
330
D75
100
AcDbEntity
  8
0
 62
     7
100
AcDbFaceRecord
 10
0.0
 20
0.0
 30
0.0
 70
   128
 71
   181
 72
   169
 73
   178
  0
VERTEX
  5
F6E
330
D75
100
AcDbEntity
  8
0
 62
     7
100
AcDbFaceRecord
 10
0.0
 20
0.0
 30
0.0
 70
   128
 71
   181
 72
   176
 73
   169
  0
VERTEX
  5
F6F
330
D75
100
AcDbEntity
  8
0
 62
     7
100
AcDbFaceRecord
 10
0.0
 20
0.0
 30
0.0
 70
   128
 71
   181
 72
   175
 73
   176
  0
VERTEX
  5
F70
330
D75
100
AcDbEntity
  8
0
 62
     7
100
AcDbFaceRecord
 10
0.0
 20
0.0
 30
0.0
 70
   128
 71
   181
 72
   180
 73
   175
  0
VERTEX
  5
F71
330
D75
100
AcDbEntity
  8
0
 62
     7
100
AcDbFaceRecord
 10
0.0
 20
0.0
 30
0.0
 70
   128
 71
   181
 72
   177
 73
   180
  0
VERTEX
  5
F72
330
D75
100
AcDbEntity
  8
0
 62
     7
100
AcDbFaceRecord
 10
0.0
 20
0.0
 30
0.0
 70
   128
 71
   182
 72
   166
 73
    20
  0
VERTEX
  5
F73
330
D75
100
AcDbEntity
  8
0
 62
     7
100
AcDbFaceRecord
 10
0.0
 20
0.0
 30
0.0
 70
   128
 71
   182
 72
   180
 73
   166
  0
VERTEX
  5
F74
330
D75
100
AcDbEntity
  8
0
 62
     7
100
AcDbFaceRecord
 10
0.0
 20
0.0
 30
0.0
 70
   128
 71
   182
 72
   175
 73
   180
  0
VERTEX
  5
F75
330
D75
100
AcDbEntity
  8
0
 62
     7
100
AcDbFaceRecord
 10
0.0
 20
0.0
 30
0.0
 70
   128
 71
   183
 72
   168
 73
    33
  0
VERTEX
  5
F76
330
D75
100
AcDbEntity
  8
0
 62
     7
100
AcDbFaceRecord
 10
0.0
 20
0.0
 30
0.0
 70
   128
 71
   183
 72
   169
 73
   168
  0
VERTEX
  5
F77
330
D75
100
AcDbEntity
  8
0
 62
     7
100
AcDbFaceRecord
 10
0.0
 20
0.0
 30
0.0
 70
   128
 71
   183
 72
   178
 73
   169
  0
VERTEX
  5
F78
330
D75
100
AcDbEntity
  8
0
 62
     7
100
AcDbFaceRecord
 10
0.0
 20
0.0
 30
0.0
 70
   128
 71
    26
 72
   171
 73
    25
  0
VERTEX
  5
F79
330
D75
100
AcDbEntity
  8
0
 62
     7
100
AcDbFaceRecord
 10
0.0
 20
0.0
 30
0.0
 70
   128
 71
    26
 72
   168
 73
   171
  0
VERTEX
  5
F7A
330
D75
100
AcDbEntity
  8
0
 62
     7
100
AcDbFaceRecord
 10
0.0
 20
0.0
 30
0.0
 70
   128
 71
   184
 72
   170
 73
   125
  0
VERTEX
  5
F7B
330
D75
100
AcDbEntity
  8
0
 62
     7
100
AcDbFaceRecord
 10
0.0
 20
0.0
 30
0.0
 70
   128
 71
   184
 72
   177
 73
   170
  0
VERTEX
  5
F7C
330
D75
100
AcDbEntity
  8
0
 62
     7
100
AcDbFaceRecord
 10
0.0
 20
0.0
 30
0.0
 70
   128
 71
   184
 72
   179
 73
   177
  0
VERTEX
  5
F7D
330
D75
100
AcDbEntity
  8
0
 62
     7
100
AcDbFaceRecord
 10
0.0
 20
0.0
 30
0.0
 70
   128
 71
   184
 72
   162
 73
   179
  0
VERTEX
  5
F7E
330
D75
100
AcDbEntity
  8
0
 62
     7
100
AcDbFaceRecord
 10
0.0
 20
0.0
 30
0.0
 70
   128
 71
   184
 72
   150
 73
   162
  0
VERTEX
  5
F7F
330
D75
100
AcDbEntity
  8
0
 62
     7
100
AcDbFaceRecord
 10
0.0
 20
0.0
 30
0.0
 70
   128
 71
   150
 72
   184
 73
   125
  0
VERTEX
  5
F80
330
D75
100
AcDbEntity
  8
0
 62
     7
100
AcDbFaceRecord
 10
0.0
 20
0.0
 30
0.0
 70
   128
 71
   185
 72
   183
 73
    33
  0
VERTEX
  5
F81
330
D75
100
AcDbEntity
  8
0
 62
     7
100
AcDbFaceRecord
 10
0.0
 20
0.0
 30
0.0
 70
   128
 71
   185
 72
   178
 73
   183
  0
VERTEX
  5
F82
330
D75
100
AcDbEntity
  8
0
 62
     7
100
AcDbFaceRecord
 10
0.0
 20
0.0
 30
0.0
 70
   128
 71
   185
 72
   170
 73
   178
  0
VERTEX
  5
F83
330
D75
100
AcDbEntity
  8
0
 62
     7
100
AcDbFaceRecord
 10
0.0
 20
0.0
 30
0.0
 70
   128
 71
   185
 72
   123
 73
   170
  0
VERTEX
  5
F84
330
D75
100
AcDbEntity
  8
0
 62
     7
100
AcDbFaceRecord
 10
0.0
 20
0.0
 30
0.0
 70
   128
 71
    34
 72
   123
 73
   185
  0
VERTEX
  5
F85
330
D75
100
AcDbEntity
  8
0
 62
     7
100
AcDbFaceRecord
 10
0.0
 20
0.0
 30
0.0
 70
   128
 71
    34
 72
   185
 73
    33
  0
VERTEX
  5
F86
330
D75
100
AcDbEntity
  8
0
 62
     7
100
AcDbFaceRecord
 10
0.0
 20
0.0
 30
0.0
 70
   128
 71
    33
 72
   168
 73
    26
  0
VERTEX
  5
F87
330
D75
100
AcDbEntity
  8
0
 62
     7
100
AcDbFaceRecord
 10
0.0
 20
0.0
 30
0.0
 70
   128
 71
   186
 72
   172
 73
   173
  0
VERTEX
  5
F88
330
D75
100
AcDbEntity
  8
0
 62
     7
100
AcDbFaceRecord
 10
0.0
 20
0.0
 30
0.0
 70
   128
 71
   186
 72
   171
 73
   172
  0
VERTEX
  5
F89
330
D75
100
AcDbEntity
  8
0
 62
     7
100
AcDbFaceRecord
 10
0.0
 20
0.0
 30
0.0
 70
   128
 71
   186
 72
    25
 73
   171
  0
VERTEX
  5
F8A
330
D75
100
AcDbEntity
  8
0
 62
     7
100
AcDbFaceRecord
 10
0.0
 20
0.0
 30
0.0
 70
   128
 71
    31
 72
    25
 73
   186
  0
VERTEX
  5
F8B
330
D75
100
AcDbEntity
  8
0
 62
     7
100
AcDbFaceRecord
 10
0.0
 20
0.0
 30
0.0
 70
   128
 71
    30
 72
    31
 73
   186
  0
VERTEX
  5
F8C
330
D75
100
AcDbEntity
  8
0
 62
     7
100
AcDbFaceRecord
 10
0.0
 20
0.0
 30
0.0
 70
   128
 71
   187
 72
    30
 73
   186
  0
VERTEX
  5
F8D
330
D75
100
AcDbEntity
  8
0
 62
     7
100
AcDbFaceRecord
 10
0.0
 20
0.0
 30
0.0
 70
   128
 71
   187
 72
   186
 73
   173
  0
VERTEX
  5
F8E
330
D75
100
AcDbEntity
  8
0
 62
     7
100
AcDbFaceRecord
 10
0.0
 20
0.0
 30
0.0
 70
   128
 71
   188
 72
   164
 73
   163
  0
VERTEX
  5
F8F
330
D75
100
AcDbEntity
  8
0
 62
     7
100
AcDbFaceRecord
 10
0.0
 20
0.0
 30
0.0
 70
   128
 71
   188
 72
   176
 73
   164
  0
VERTEX
  5
F90
330
D75
100
AcDbEntity
  8
0
 62
     7
100
AcDbFaceRecord
 10
0.0
 20
0.0
 30
0.0
 70
   128
 71
   188
 72
   167
 73
   176
  0
VERTEX
  5
F91
330
D75
100
AcDbEntity
  8
0
 62
     7
100
AcDbFaceRecord
 10
0.0
 20
0.0
 30
0.0
 70
   128
 71
   188
 72
   172
 73
   167
  0
VERTEX
  5
F92
330
D75
100
AcDbEntity
  8
0
 62
     7
100
AcDbFaceRecord
 10
0.0
 20
0.0
 30
0.0
 70
   128
 71
   188
 72
   174
 73
   172
  0
VERTEX
  5
F93
330
D75
100
AcDbEntity
  8
0
 62
     7
100
AcDbFaceRecord
 10
0.0
 20
0.0
 30
0.0
 70
   128
 71
   174
 72
   188
 73
   163
  0
VERTEX
  5
F94
330
D75
100
AcDbEntity
  8
0
 62
     7
100
AcDbFaceRecord
 10
0.0
 20
0.0
 30
0.0
 70
   128
 71
   189
 72
   182
 73
    20
  0
VERTEX
  5
F95
330
D75
100
AcDbEntity
  8
0
 62
     7
100
AcDbFaceRecord
 10
0.0
 20
0.0
 30
0.0
 70
   128
 71
   189
 72
   175
 73
   182
  0
VERTEX
  5
F96
330
D75
100
AcDbEntity
  8
0
 62
     7
100
AcDbFaceRecord
 10
0.0
 20
0.0
 30
0.0
 70
   128
 71
   189
 72
   164
 73
   175
  0
VERTEX
  5
F97
330
D75
100
AcDbEntity
  8
0
 62
     7
100
AcDbFaceRecord
 10
0.0
 20
0.0
 30
0.0
 70
   128
 71
   189
 72
   165
 73
   164
  0
VERTEX
  5
F98
330
D75
100
AcDbEntity
  8
0
 62
     7
100
AcDbFaceRecord
 10
0.0
 20
0.0
 30
0.0
 70
   128
 71
    21
 72
   165
 73
   189
  0
VERTEX
  5
F99
330
D75
100
AcDbEntity
  8
0
 62
     7
100
AcDbFaceRecord
 10
0.0
 20
0.0
 30
0.0
 70
   128
 71
    21
 72
   189
 73
    20
  0
VERTEX
  5
F9A
330
D75
100
AcDbEntity
  8
0
 62
     7
100
AcDbFaceRecord
 10
0.0
 20
0.0
 30
0.0
 70
   128
 71
   190
 72
   161
 73
    10
  0
VERTEX
  5
F9B
330
D75
100
AcDbEntity
  8
0
 62
     7
100
AcDbFaceRecord
 10
0.0
 20
0.0
 30
0.0
 70
   128
 71
   190
 72
   162
 73
   161
  0
VERTEX
  5
F9C
330
D75
100
AcDbEntity
  8
0
 62
     7
100
AcDbFaceRecord
 10
0.0
 20
0.0
 30
0.0
 70
   128
 71
   190
 72
   179
 73
   162
  0
VERTEX
  5
F9D
330
D75
100
AcDbEntity
  8
0
 62
     7
100
AcDbFaceRecord
 10
0.0
 20
0.0
 30
0.0
 70
   128
 71
   190
 72
   166
 73
   179
  0
VERTEX
  5
F9E
330
D75
100
AcDbEntity
  8
0
 62
     7
100
AcDbFaceRecord
 10
0.0
 20
0.0
 30
0.0
 70
   128
 71
   190
 72
     2
 73
   166
  0
VERTEX
  5
F9F
330
D75
100
AcDbEntity
  8
0
 62
     7
100
AcDbFaceRecord
 10
0.0
 20
0.0
 30
0.0
 70
   128
 71
     2
 72
   190
 73
    10
  0
VERTEX
  5
FA0
330
D75
100
AcDbEntity
  8
0
 62
     7
100
AcDbFaceRecord
 10
0.0
 20
0.0
 30
0.0
 70
   128
 71
    15
 72
    18
 73
   161
  0
VERTEX
  5
FA1
330
D75
100
AcDbEntity
  8
0
 62
     7
100
AcDbFaceRecord
 10
0.0
 20
0.0
 30
0.0
 70
   128
 71
   138
 72
   161
 73
   151
  0
VERTEX
  5
FA2
330
D75
100
AcDbEntity
  8
0
 62
     7
100
AcDbFaceRecord
 10
0.0
 20
0.0
 30
0.0
 70
   128
 71
   138
 72
    15
 73
   161
  0
VERTEX
  5
FA3
330
D75
100
AcDbEntity
  8
0
 62
     7
100
AcDbFaceRecord
 10
0.0
 20
0.0
 30
0.0
 70
   128
 71
   191
 72
   192
 73
   193
  0
VERTEX
  5
FA4
330
D75
100
AcDbEntity
  8
0
 62
     7
100
AcDbFaceRecord
 10
0.0
 20
0.0
 30
0.0
 70
   128
 71
     1
 72
   191
 73
   193
  0
VERTEX
  5
FA5
330
D75
100
AcDbEntity
  8
0
 62
     7
100
AcDbFaceRecord
 10
0.0
 20
0.0
 30
0.0
 70
   128
 71
    24
 72
     1
 73
   193
  0
VERTEX
  5
FA6
330
D75
100
AcDbEntity
  8
0
 62
     7
100
AcDbFaceRecord
 10
0.0
 20
0.0
 30
0.0
 70
   128
 71
   187
 72
   194
 73
    29
  0
VERTEX
  5
FA7
330
D75
100
AcDbEntity
  8
0
 62
     7
100
AcDbFaceRecord
 10
0.0
 20
0.0
 30
0.0
 70
   128
 71
   195
 72
   194
 73
   187
  0
VERTEX
  5
FA8
330
D75
100
AcDbEntity
  8
0
 62
     7
100
AcDbFaceRecord
 10
0.0
 20
0.0
 30
0.0
 70
   128
 71
   192
 72
   165
 73
   193
  0
VERTEX
  5
FA9
330
D75
100
AcDbEntity
  8
0
 62
     7
100
AcDbFaceRecord
 10
0.0
 20
0.0
 30
0.0
 70
   128
 71
   163
 72
   165
 73
   192
  0
VERTEX
  5
FAA
330
D75
100
AcDbEntity
  8
0
 62
     7
100
AcDbFaceRecord
 10
0.0
 20
0.0
 30
0.0
 70
   128
 71
   196
 72
   174
 73
   197
  0
VERTEX
  5
FAB
330
D75
100
AcDbEntity
  8
0
 62
     7
100
AcDbFaceRecord
 10
0.0
 20
0.0
 30
0.0
 70
   128
 71
   173
 72
   174
 73
   196
  0
VERTEX
  5
FAC
330
D75
100
AcDbEntity
  8
0
 62
     7
100
AcDbFaceRecord
 10
0.0
 20
0.0
 30
0.0
 70
   128
 71
    30
 72
   187
 73
    29
  0
VERTEX
  5
FAD
330
D75
100
AcDbEntity
  8
0
 62
     7
100
AcDbFaceRecord
 10
0.0
 20
0.0
 30
0.0
 70
   128
 71
    27
 72
    29
 73
   194
  0
VERTEX
  5
FAE
330
D75
100
AcDbEntity
  8
0
 62
     7
100
AcDbFaceRecord
 10
0.0
 20
0.0
 30
0.0
 70
   128
 71
    28
 72
    27
 73
   194
  0
VERTEX
  5
FAF
330
D75
100
AcDbEntity
  8
0
 62
     7
100
AcDbFaceRecord
 10
0.0
 20
0.0
 30
0.0
 70
   128
 71
   173
 72
   195
 73
   187
  0
VERTEX
  5
FB0
330
D75
100
AcDbEntity
  8
0
 62
     7
100
AcDbFaceRecord
 10
0.0
 20
0.0
 30
0.0
 70
   128
 71
   195
 72
   173
 73
   196
  0
VERTEX
  5
FB1
330
D75
100
AcDbEntity
  8
0
 62
     7
100
AcDbFaceRecord
 10
0.0
 20
0.0
 30
0.0
 70
   128
 71
   163
 72
   197
 73
   174
  0
VERTEX
  5
FB2
330
D75
100
AcDbEntity
  8
0
 62
     7
100
AcDbFaceRecord
 10
0.0
 20
0.0
 30
0.0
 70
   128
 71
   198
 72
   197
 73
   163
  0
VERTEX
  5
FB3
330
D75
100
AcDbEntity
  8
0
 62
     7
100
AcDbFaceRecord
 10
0.0
 20
0.0
 30
0.0
 70
   128
 71
   198
 72
   163
 73
   192
  0
VERTEX
  5
FB4
330
D75
100
AcDbEntity
  8
0
 62
     7
100
AcDbFaceRecord
 10
0.0
 20
0.0
 30
0.0
 70
   128
 71
    23
 72
   193
 73
   165
  0
VERTEX
  5
FB5
330
D75
100
AcDbEntity
  8
0
 62
     7
100
AcDbFaceRecord
 10
0.0
 20
0.0
 30
0.0
 70
   128
 71
    24
 72
   193
 73
    23
  0
VERTEX
  5
FB6
330
D75
100
AcDbEntity
  8
0
 62
     7
100
AcDbFaceRecord
 10
0.0
 20
0.0
 30
0.0
 70
   128
 71
    22
 72
    23
 73
   165
  0
VERTEX
  5
FB7
330
D75
100
AcDbEntity
  8
0
 62
     7
100
AcDbFaceRecord
 10
0.0
 20
0.0
 30
0.0
 70
   128
 71
    21
 72
    22
 73
   165
  0
VERTEX
  5
FB8
330
D75
100
AcDbEntity
  8
0
 62
     7
100
AcDbFaceRecord
 10
0.0
 20
0.0
 30
0.0
 70
   128
 71
   199
 72
   191
 73
     1
  0
VERTEX
  5
FB9
330
D75
100
AcDbEntity
  8
0
 62
     7
100
AcDbFaceRecord
 10
0.0
 20
0.0
 30
0.0
 70
   128
 71
     3
 72
   199
 73
     1
  0
VERTEX
  5
FBA
330
D75
100
AcDbEntity
  8
0
 62
     7
100
AcDbFaceRecord
 10
0.0
 20
0.0
 30
0.0
 70
   128
 71
   199
 72
     3
 73
   194
  0
VERTEX
  5
FBB
330
D75
100
AcDbEntity
  8
0
 62
     7
100
AcDbFaceRecord
 10
0.0
 20
0.0
 30
0.0
 70
   128
 71
   195
 72
   199
 73
   194
  0
VERTEX
  5
FBC
330
D75
100
AcDbEntity
  8
0
 62
     7
100
AcDbFaceRecord
 10
0.0
 20
0.0
 30
0.0
 70
   128
 71
    28
 72
   194
 73
     3
  0
VERTEX
  5
FBD
330
D75
100
AcDbEntity
  8
0
 62
     7
100
AcDbFaceRecord
 10
0.0
 20
0.0
 30
0.0
 70
   128
 71
   198
 72
   191
 73
   197
  0
VERTEX
  5
FBE
330
D75
100
AcDbEntity
  8
0
 62
     7
100
AcDbFaceRecord
 10
0.0
 20
0.0
 30
0.0
 70
   128
 71
   192
 72
   191
 73
   198
  0
VERTEX
  5
FBF
330
D75
100
AcDbEntity
  8
0
 62
     7
100
AcDbFaceRecord
 10
0.0
 20
0.0
 30
0.0
 70
   128
 71
   199
 72
   197
 73
   191
  0
VERTEX
  5
FC0
330
D75
100
AcDbEntity
  8
0
 62
     7
100
AcDbFaceRecord
 10
0.0
 20
0.0
 30
0.0
 70
   128
 71
   196
 72
   197
 73
   199
  0
VERTEX
  5
FC1
330
D75
100
AcDbEntity
  8
0
 62
     7
100
AcDbFaceRecord
 10
0.0
 20
0.0
 30
0.0
 70
   128
 71
   195
 72
   196
 73
   199
  0
VERTEX
  5
FC2
330
D75
100
AcDbEntity
  8
0
 62
     7
100
AcDbFaceRecord
 10
0.0
 20
0.0
 30
0.0
 70
   128
 71
    87
 72
    63
 73
    95
  0
VERTEX
  5
FC3
330
D75
100
AcDbEntity
  8
0
 62
     7
100
AcDbFaceRecord
 10
0.0
 20
0.0
 30
0.0
 70
   128
 71
    61
 72
    63
 73
    87
  0
VERTEX
  5
FC4
330
D75
100
AcDbEntity
  8
0
 62
     7
100
AcDbFaceRecord
 10
0.0
 20
0.0
 30
0.0
 70
   128
 71
    82
 72
    61
 73
    87
  0
VERTEX
  5
FC5
330
D75
100
AcDbEntity
  8
0
 62
     7
100
AcDbFaceRecord
 10
0.0
 20
0.0
 30
0.0
 70
   128
 71
     5
 72
    95
 73
    63
  0
VERTEX
  5
FC6
330
D75
100
AcDbEntity
  8
0
 62
     7
100
AcDbFaceRecord
 10
0.0
 20
0.0
 30
0.0
 70
   128
 71
     7
 72
    95
 73
     5
  0
SEQEND
  5
FC7
330
D75
100
AcDbEntity
  8
0
 62
     7
  0
INSERT
  5
FC8
330
1F
100
AcDbEntity
  8
0
100
AcDbBlockReference
 66
     1
  2
RM_SDB
 10
-9.629227616205005
 20
0.0
 30
14.18748473281887
1001
AVE_MATERIAL
1002
{
1000
*GLOBAL*01
1000
2
1000

1002
{
1002
}
1002
{
1070
    39
1002
{
1002
{
1010
1.428571462631224
1020
1.428571462631224
1030
1.428571462631224
1002
}
1040
0.6999999880790711
1000

1040
0.0
1002
{
1002
}
1040
0.0
1002
{
1002
}
1040
0.0
1002
}
1002
{
1002
{
1010
1.0
1020
1.0
1030
1.0
1002
}
1040
1.0
1000

1040
0.0
1002
{
1002
}
1040
0.0
1002
{
1002
}
1040
0.0
1002
}
1002
{
1002
{
1010
5.0
1020
5.0
1030
5.0
1002
}
1040
0.2000000029802322
1000

1040
0.0
1002
{
1002
}
1040
0.0
1002
{
1002
}
1040
0.0
1002
}
1002
{
1070
     0
1002
{
1070
     1
1002
{
1040
1.0
1040
1.0
1000

1040
0.0
1002
{
1002
}
1040
0.0
1002
{
1002
}
1040
0.0
1002
}
1002
}
1040
0.0
1040
0.0
1040
0.0
1002
}
1002
{
1040
0.0
1040
0.0
1000

1040
0.0
1002
{
1002
}
1040
0.0
1002
{
1002
}
1040
0.0
1002
}
1002
{
1040
0.5
1040
1.0
1000

1040
0.0
1002
{
1002
}
1040
0.0
1002
{
1002
}
1040
0.0
1002
}
1002
{
1070
     0
1040
0.0
1002
{
1002
}
1040
0.0
1002
{
1002
}
1040
0.0
1002
}
1002
{
1040
0.0
1002
{
1002
{
1010
0.0
1020
0.0
1030
0.0
1002
}
1040
0.0
1000

1040
0.0
1002
{
1002
}
1040
0.0
1002
{
1002
}
1040
0.0
1002
}
1002
}
1002
{
1002
{
1070
     1
1002
{
1040
0.0
1040
1.0
1000

1040
0.0
1002
{
1002
}
1040
0.0
1002
{
1002
}
1040
0.0
1002
}
1002
}
1040
0.0
1002
{
1002
}
1010
0.0
1020
0.0
1030
0.0
1010
0.0
1020
0.0
1030
0.0
1010
0.0
1020
0.0
1030
0.0
1070
     0
1002
}
1002
{
1002
{
1040
0.0
1040
0.0
1002
{
1070
     0
1002
}
1002
}
1070
     0
1040
0.0
1002
{
1002
}
1002
}
1002
{
1002
}
1002
}
1002
{
1071
        3
1070
     3
1070
     0
1002
{
1070
     2
1070
     1
1070
     0
1040
0.0
1002
}
1070
     0
1070
     2
1002
{
1002
}
1002
}
1002
{
1040
8030.0
1040
190.3000030517578
1040
0.3050000071525574
1040
228.0
1040
545.0
1040
14.0
1040
17.39999961853027
1040
0.4560000002384186
1002
}
1000
ADE
1002
}
  0
ATTRIB
  5
FC9
330
FC8
100
AcDbEntity
  8
0
100
AcDbText
 10
-9.629227616205005
 20
0.0
 30
14.18748473281887
 40
0.2
  1
*GLOBAL*01
100
AcDbAttribute
  2
NAME
 70
     1
  0
ATTRIB
  5
FCA
330
FC8
100
AcDbEntity
  8
0
100
AcDbText
 10
-9.629227616205005
 20
0.0
 30
14.18748473281887
 40
0.2
  1

100
AcDbAttribute
  2
ACADCOLOR
 70
     1
  0
ATTRIB
  5
FCB
330
FC8
100
AcDbEntity
  8
0
100
AcDbText
 10
-9.629227616205005
 20
0.0
 30
14.18748473281887
 40
0.2
  1
1.0000,1.0000,1.0000
100
AcDbAttribute
  2
COLOR
 70
     1
  0
ATTRIB
  5
FCC
330
FC8
100
AcDbEntity
  8
0
100
AcDbText
 10
-9.629227616205005
 20
0.0
 30
14.18748473281887
 40
0.2
  1
1.0,1.0,1.0
100
AcDbAttribute
  2
OPACITY
 70
     1
  0
ATTRIB
  5
FCD
330
FC8
100
AcDbEntity
  8
0
100
AcDbText
 10
-9.629227616205005
 20
0.0
 30
14.18748473281887
 40
0.2
  1
("nullsurf" "")
100
AcDbAttribute
  2
SURFACE
 70
     1
  0
ATTRIB
  5
FCE
330
FC8
100
AcDbEntity
  8
0
100
AcDbText
 10
-9.629227616205005
 20
0.0
 30
14.18748473281887
 40
0.2
  1
(11 "Ka" "0.7")(11 "Kd" "1")(11 "Ks" "0.2")(11 "roughness" "0.5")
100
AcDbAttribute
  2
SURF1
 70
     1
  0
ATTRIB
  5
FCF
330
FC8
100
AcDbEntity
  8
0
100
AcDbText
 10
-9.629227616205005
 20
0.0
 30
14.18748473281887
 40
0.2
  1

100
AcDbAttribute
  2
SURF2
 70
     1
  0
ATTRIB
  5
FD0
330
FC8
100
AcDbEntity
  8
0
100
AcDbText
 10
-9.629227616205005
 20
0.0
 30
14.18748473281887
 40
0.2
  1

100
AcDbAttribute
  2
SURF3
 70
     1
  0
ATTRIB
  5
FD1
330
FC8
100
AcDbEntity
  8
0
100
AcDbText
 10
-9.629227616205005
 20
0.0
 30
14.18748473281887
 40
0.2
  1

100
AcDbAttribute
  2
SURF4
 70
     1
  0
ATTRIB
  5
FD2
330
FC8
100
AcDbEntity
  8
0
100
AcDbText
 10
-9.629227616205005
 20
0.0
 30
14.18748473281887
 40
0.2
  1
-1.0
100
AcDbAttribute
  2
SHADINGRATE
 70
     1
  0
ATTRIB
  5
FD3
330
FC8
100
AcDbEntity
  8
0
100
AcDbText
 10
-9.629227616205005
 20
0.0
 30
14.18748473281887
 40
0.2
  1
("nulldisp" "")
100
AcDbAttribute
  2
DISPLACEMENT
 70
     1
  0
ATTRIB
  5
FD4
330
FC8
100
AcDbEntity
  8
0
100
AcDbText
 10
-9.629227616205005
 20
0.0
 30
14.18748473281887
 40
0.2
  1

100
AcDbAttribute
  2
DISP1
 70
     1
  0
ATTRIB
  5
FD5
330
FC8
100
AcDbEntity
  8
0
100
AcDbText
 10
-9.629227616205005
 20
0.0
 30
14.18748473281887
 40
0.2
  1

100
AcDbAttribute
  2
DISP2
 70
     1
  0
ATTRIB
  5
FD6
330
FC8
100
AcDbEntity
  8
0
100
AcDbText
 10
-9.629227616205005
 20
0.0
 30
14.18748473281887
 40
0.2
  1

100
AcDbAttribute
  2
DISP3
 70
     1
  0
ATTRIB
  5
FD7
330
FC8
100
AcDbEntity
  8
0
100
AcDbText
 10
-9.629227616205005
 20
0.0
 30
14.18748473281887
 40
0.2
  1

100
AcDbAttribute
  2
DISP4
 70
     1
  0
ATTRIB
  5
FD8
330
FC8
100
AcDbEntity
  8
0
100
AcDbText
 10
-9.629227616205005
 20
0.0
 30
14.18748473281887
 40
0.2
  1
0.0
100
AcDbAttribute
  2
DBOUND
 70
     1
  0
ATTRIB
  5
FD9
330
FC8
100
AcDbEntity
  8
0
100
AcDbText
 10
-9.629227616205005
 20
0.0
 30
14.18748473281887
 40
0.2
  1
0
100
AcDbAttribute
  2
SMOOTH
 70
     1
  0
ATTRIB
  5
FDA
330
FC8
100
AcDbEntity
  8
0
100
AcDbText
 10
-9.629227616205005
 20
0.0
 30
14.18748473281887
 40
0.2
  1
("" "")
100
AcDbAttribute
  2
ATMOSHPERE
 70
     1
  0
ATTRIB
  5
FDB
330
FC8
100
AcDbEntity
  8
0
100
AcDbText
 10
-9.629227616205005
 20
0.0
 30
14.18748473281887
 40
0.2
  1

100
AcDbAttribute
  2
ATMO1
 70
     1
  0
ATTRIB
  5
FDC
330
FC8
100
AcDbEntity
  8
0
100
AcDbText
 10
-9.629227616205005
 20
0.0
 30
14.18748473281887
 40
0.2
  1

100
AcDbAttribute
  2
ATMO2
 70
     1
  0
ATTRIB
  5
FDD
330
FC8
100
AcDbEntity
  8
0
100
AcDbText
 10
-9.629227616205005
 20
0.0
 30
14.18748473281887
 40
0.2
  1

100
AcDbAttribute
  2
ATMO3
 70
     1
  0
ATTRIB
  5
FDE
330
FC8
100
AcDbEntity
  8
0
100
AcDbText
 10
-9.629227616205005
 20
0.0
 30
14.18748473281887
 40
0.2
  1

100
AcDbAttribute
  2
ATMO4
 70
     1
  0
ATTRIB
  5
FDF
330
FC8
100
AcDbEntity
  8
0
100
AcDbText
 10
-9.629227616205005
 20
0.0
 30
14.18748473281887
 40
0.2
  1
0.0 0.0 1.0 0.0 0.0 1.0 1.0 1.0
100
AcDbAttribute
  2
TCCORD
 70
     1
  0
SEQEND
  5
FE0
330
FC8
100
AcDbEntity
  8
0
  0
ENDSEC
  0
SECTION
  2
OBJECTS
  0
DICTIONARY
  5
C
330
0
100
AcDbDictionary
281
     1
  3
ACAD_COLOR
350
7C5
  3
ACAD_GROUP
350
D
  3
ACAD_LAYOUT
350
1A
  3
ACAD_MATERIAL
350
7C4
  3
ACAD_MLEADERSTYLE
350
833
  3
ACAD_MLINESTYLE
350
17
  3
ACAD_PLOTSETTINGS
350
19
  3
ACAD_PLOTSTYLENAME
350
E
  3
ACAD_SCALELIST
350
811
  3
ACAD_TABLESTYLE
350
7C6
  3
ACAD_VISUALSTYLE
350
800
  3
ACDB_RECOMPOSE_DATA
350
AF4
  3
AcDbVariableDictionary
350
7AF
  3
AVE_ACITABLE
350
843
  3
DWGPROPS
350
FE2
  0
DICTIONARY
  5
AE6
330
10
100
AcDbDictionary
280
     1
281
     1
  3
ADSK_XREC_LAYER_RECONCILED
360
AE7
  0
DICTIONARY
  5
AE8
330
D2
100
AcDbDictionary
280
     1
281
     1
  3
ADSK_XREC_LAYER_RECONCILED
360
AE9
  0
DICTIONARY
  5
AEA
330
798
100
AcDbDictionary
280
     1
281
     1
  3
ADSK_XREC_LAYER_RECONCILED
360
AEB
  0
DICTIONARY
  5
AEC
330
83E
100
AcDbDictionary
280
     1
281
     1
  3
ADSK_XREC_LAYER_RECONCILED
360
AED
  0
DICTIONARY
  5
7C5
102
{ACAD_REACTORS
330
C
102
}
330
C
100
AcDbDictionary
281
     1
  0
DICTIONARY
  5
D
102
{ACAD_REACTORS
330
C
102
}
330
C
100
AcDbDictionary
281
     1
  0
DICTIONARY
  5
1A
102
{ACAD_REACTORS
330
C
102
}
330
C
100
AcDbDictionary
281
     1
  3
Layout1
350
1E
  3
Layout2
350
26
  3
Model
350
22
  0
DICTIONARY
  5
7C4
102
{ACAD_REACTORS
330
C
102
}
330
C
100
AcDbDictionary
281
     1
  3
_GLOBAL_01
350
ADE
  3
ByBlock
350
7F0
  3
ByLayer
350
7E8
  3
Global
350
7F8
  0
DICTIONARY
  5
833
102
{ACAD_REACTORS
330
C
102
}
330
C
100
AcDbDictionary
281
     1
  3
Standard
350
834
  0
DICTIONARY
  5
17
102
{ACAD_REACTORS
330
C
102
}
330
C
100
AcDbDictionary
281
     1
  3
Standard
350
18
  0
DICTIONARY
  5
19
102
{ACAD_REACTORS
330
C
102
}
330
C
100
AcDbDictionary
281
     1
  0
ACDBDICTIONARYWDFLT
  5
E
102
{ACAD_REACTORS
330
C
102
}
330
C
100
AcDbDictionary
281
     1
  3
Normal
350
F
100
AcDbDictionaryWithDefault
340
F
  0
DICTIONARY
  5
811
102
{ACAD_REACTORS
330
C
102
}
330
C
100
AcDbDictionary
281
     1
  3
A0
350
812
  3
A1
350
813
  3
A2
350
814
  3
A3
350
815
  3
A4
350
816
  3
A5
350
817
  3
A6
350
818
  3
A7
350
819
  3
A8
350
81A
  3
A9
350
81B
  3
B0
350
81C
  3
B1
350
81D
  3
B2
350
81E
  3
B3
350
81F
  3
B4
350
820
  3
B5
350
821
  3
B6
350
822
  3
B7
350
823
  3
B8
350
824
  3
B9
350
825
  3
C0
350
826
  3
C1
350
827
  3
C2
350
828
  3
C3
350
829
  3
C4
350
82A
  3
C5
350
82B
  3
C6
350
82C
  3
C7
350
82D
  3
C8
350
82E
  3
C9
350
82F
  3
D0
350
830
  3
D1
350
831
  3
D2
350
832
  0
DICTIONARY
  5
7C6
102
{ACAD_REACTORS
330
C
102
}
330
C
100
AcDbDictionary
281
     1
  3
Standard
350
7C7
  0
DICTIONARY
  5
800
102
{ACAD_REACTORS
330
C
102
}
330
C
100
AcDbDictionary
281
     1
  3
2dWireframe
350
806
  3
3D Hidden
350
808
  3
3dWireframe
350
807
  3
Basic
350
805
  3
Brighten
350
80C
  3
ColorChange
350
810
  3
Conceptual
350
809
  3
Dim
350
80B
  3
Facepattern
350
80F
  3
Flat
350
801
  3
FlatWithEdges
350
802
  3
Gouraud
350
803
  3
GouraudWithEdges
350
804
  3
Linepattern
350
80E
  3
Realistic
350
80A
  3
Thicken
350
80D
  0
XRECORD
  5
AF4
102
{ACAD_REACTORS
330
C
102
}
330
C
100
AcDbXrecord
280
     1
 90
        1
330
7C7
  0
DICTIONARY
  5
7AF
102
{ACAD_REACTORS
330
C
102
}
330
C
100
AcDbDictionary
281
     1
  3
CANNOSCALE
350
AEF
  3
CMLEADERSTYLE
350
AEE
  3
CTABLESTYLE
350
7D3
  3
DIMASSOC
350
7B0
  3
HIDETEXT
350
7DC
  3
INDEXCTL
350
AF1
  3
SORTENTS
350
AF0
  0
DICTIONARY
  5
843
102
{ACAD_REACTORS
330
C
102
}
330
C
100
AcDbDictionary
281
     1
  0
XRECORD
  5
FE2
102
{ACAD_REACTORS
330
C
102
}
330
C
100
AcDbXrecord
280
     1
  1
DWGPROPS COOKIE
  2

  3

  4

  6

  7

  8
Christian
  9

300
=
301
=
302
=
303
=
304
=
305
=
306
=
307
=
308
=
309
=
 40
0.5820759027777778
 41
2452587.497350764
 42
2454459.460204017
  1

 90
        0
  0
XRECORD
  5
AE7
102
{ACAD_REACTORS
330
AE6
102
}
330
AE6
100
AcDbXrecord
280
     1
290
     1
  0
XRECORD
  5
AE9
102
{ACAD_REACTORS
330
AE8
102
}
330
AE8
100
AcDbXrecord
280
     1
290
     1
  0
XRECORD
  5
AEB
102
{ACAD_REACTORS
330
AEA
102
}
330
AEA
100
AcDbXrecord
280
     1
290
     1
  0
XRECORD
  5
AED
102
{ACAD_REACTORS
330
AEC
102
}
330
AEC
100
AcDbXrecord
280
     1
290
     1
  0
LAYOUT
  5
1E
102
{ACAD_XDICTIONARY
360
FE3
102
}
102
{ACAD_REACTORS
330
1A
102
}
330
1A
100
AcDbPlotSettings
  1

  2

  4

  6

 40
0.0
 41
0.0
 42
0.0
 43
0.0
 44
0.0
 45
0.0
 46
0.0
 47
0.0
 48
0.0
 49
0.0
140
0.0
141
0.0
142
1.0
143
1.0
 70
   688
 72
     0
 73
     0
 74
     5
  7

 75
    16
147
1.0
148
0.0
149
0.0
100
AcDbLayout
  1
Layout1
 70
     1
 71
     1
 10
0.0
 20
0.0
 11
12.0
 21
9.0
 12
0.0
 22
0.0
 32
0.0
 14
1.000000000000000E+20
 24
1.000000000000000E+20
 34
1.000000000000000E+20
 15
-1.000000000000000E+20
 25
-1.000000000000000E+20
 35
-1.000000000000000E+20
146
0.0
 13
0.0
 23
0.0
 33
0.0
 16
1.0
 26
0.0
 36
0.0
 17
0.0
 27
1.0
 37
0.0
 76
     0
330
1B
  0
LAYOUT
  5
26
102
{ACAD_XDICTIONARY
360
FE7
102
}
102
{ACAD_REACTORS
330
1A
102
}
330
1A
100
AcDbPlotSettings
  1

  2

  4

  6

 40
0.0
 41
0.0
 42
0.0
 43
0.0
 44
0.0
 45
0.0
 46
0.0
 47
0.0
 48
0.0
 49
0.0
140
0.0
141
0.0
142
1.0
143
1.0
 70
   688
 72
     0
 73
     0
 74
     5
  7

 75
    16
147
1.0
148
0.0
149
0.0
100
AcDbLayout
  1
Layout2
 70
     1
 71
     2
 10
0.0
 20
0.0
 11
12.0
 21
9.0
 12
0.0
 22
0.0
 32
0.0
 14
0.0
 24
0.0
 34
0.0
 15
0.0
 25
0.0
 35
0.0
146
0.0
 13
0.0
 23
0.0
 33
0.0
 16
1.0
 26
0.0
 36
0.0
 17
0.0
 27
1.0
 37
0.0
 76
     0
330
23
  0
LAYOUT
  5
22
102
{ACAD_XDICTIONARY
360
FE5
102
}
102
{ACAD_REACTORS
330
1A
102
}
330
1A
100
AcDbPlotSettings
  1

  2
EPSON Stylus C80 Series
  4
Letter
  6

 40
3.757083177566528
 41
14.76376056671143
 42
3.757080078125
 43
3.757080078125
 44
215.8999938964844
 45
279.3999938964844
 46
0.0
 47
0.0
 48
0.0
 49
0.0
140
0.0
141
0.0
142
1.0
143
1.0
 70
 11952
 72
     0
 73
     1
 74
     0
  7

 75
     0
147
1.0
148
-32.82152498042917
149
339.8261437359589
100
AcDbLayout
  1
Model
 70
     1
 71
     0
 10
0.0
 20
0.0
 11
12.0
 21
9.0
 12
0.0
 22
0.0
 32
0.0
 14
0.0
 24
0.0
 34
0.0
 15
0.0
 25
0.0
 35
0.0
146
0.0
 13
0.0
 23
0.0
 33
0.0
 16
1.0
 26
0.0
 36
0.0
 17
0.0
 27
1.0
 37
0.0
 76
     0
330
1F
331
7D9
  0
MATERIAL
  5
ADE
102
{ACAD_XDICTIONARY
360
ADF
102
}
102
{ACAD_REACTORS
330
7C4
102
}
330
7C4
100
AcDbMaterial
  1
_GLOBAL_01
 70
     1
 40
0.6999999880790711
 90
-1033081748
 71
     1
 91
-1023410177
 72
     0
 76
     1
 45
0.2000000029802322
 92
-1023673349
 77
     0
171
     0
175
     0
179
     0
  0
MATERIAL
  5
7F0
102
{ACAD_XDICTIONARY
360
7F1
102
}
102
{ACAD_REACTORS
330
7C4
102
}
330
7C4
100
AcDbMaterial
  1
ByBlock
 72
     0
 43
0.0208333333333333
 43
0.0
 43
0.0
 43
0.0
 43
0.0
 43
0.0208333333333333
 43
0.0
 43
0.0
 43
0.0
 43
0.0
 43
1.0
 43
0.0
 43
0.0
 43
0.0
 43
0.0
 43
1.0
 77
     0
 47
0.0208333333333333
 47
0.0
 47
0.0
 47
0.0
 47
0.0
 47
0.0208333333333333
 47
0.0
 47
0.0
 47
0.0
 47
0.0
 47
1.0
 47
0.0
 47
0.0
 47
0.0
 47
0.0
 47
1.0
171
     0
 49
0.0208333333333333
 49
0.0
 49
0.0
 49
0.0
 49
0.0
 49
0.0208333333333333
 49
0.0
 49
0.0
 49
0.0
 49
0.0
 49
1.0
 49
0.0
 49
0.0
 49
0.0
 49
0.0
 49
1.0
175
     0
142
0.0208333333333333
142
0.0
142
0.0
142
0.0
142
0.0
142
0.0208333333333333
142
0.0
142
0.0
142
0.0
142
0.0
142
1.0
142
0.0
142
0.0
142
0.0
142
0.0
142
1.0
179
     0
144
0.0208333333333333
144
0.0
144
0.0
144
0.0
144
0.0
144
0.0208333333333333
144
0.0
144
0.0
144
0.0
144
0.0
144
1.0
144
0.0
144
0.0
144
0.0
144
0.0
144
1.0
147
0.0208333333333333
147
0.0
147
0.0
147
0.0
147
0.0
147
0.0208333333333333
147
0.0
147
0.0
147
0.0
147
0.0
147
1.0
147
0.0
147
0.0
147
0.0
147
0.0
147
1.0
  0
MATERIAL
  5
7E8
102
{ACAD_XDICTIONARY
360
7E9
102
}
102
{ACAD_REACTORS
330
7C4
102
}
330
7C4
100
AcDbMaterial
  1
ByLayer
 72
     0
 43
0.0208333333333333
 43
0.0
 43
0.0
 43
0.0
 43
0.0
 43
0.0208333333333333
 43
0.0
 43
0.0
 43
0.0
 43
0.0
 43
1.0
 43
0.0
 43
0.0
 43
0.0
 43
0.0
 43
1.0
 77
     0
 47
0.0208333333333333
 47
0.0
 47
0.0
 47
0.0
 47
0.0
 47
0.0208333333333333
 47
0.0
 47
0.0
 47
0.0
 47
0.0
 47
1.0
 47
0.0
 47
0.0
 47
0.0
 47
0.0
 47
1.0
171
     0
 49
0.0208333333333333
 49
0.0
 49
0.0
 49
0.0
 49
0.0
 49
0.0208333333333333
 49
0.0
 49
0.0
 49
0.0
 49
0.0
 49
1.0
 49
0.0
 49
0.0
 49
0.0
 49
0.0
 49
1.0
175
     0
142
0.0208333333333333
142
0.0
142
0.0
142
0.0
142
0.0
142
0.0208333333333333
142
0.0
142
0.0
142
0.0
142
0.0
142
1.0
142
0.0
142
0.0
142
0.0
142
0.0
142
1.0
179
     0
144
0.0208333333333333
144
0.0
144
0.0
144
0.0
144
0.0
144
0.0208333333333333
144
0.0
144
0.0
144
0.0
144
0.0
144
1.0
144
0.0
144
0.0
144
0.0
144
0.0
144
1.0
147
0.0208333333333333
147
0.0
147
0.0
147
0.0
147
0.0
147
0.0208333333333333
147
0.0
147
0.0
147
0.0
147
0.0
147
1.0
147
0.0
147
0.0
147
0.0
147
0.0
147
1.0
  0
MATERIAL
  5
7F8
102
{ACAD_XDICTIONARY
360
7F9
102
}
102
{ACAD_REACTORS
330
7C4
102
}
330
7C4
100
AcDbMaterial
  1
Global
 72
     0
 43
0.0208333333333333
 43
0.0
 43
0.0
 43
0.0
 43
0.0
 43
0.0208333333333333
 43
0.0
 43
0.0
 43
0.0
 43
0.0
 43
1.0
 43
0.0
 43
0.0
 43
0.0
 43
0.0
 43
1.0
 77
     0
 47
0.0208333333333333
 47
0.0
 47
0.0
 47
0.0
 47
0.0
 47
0.0208333333333333
 47
0.0
 47
0.0
 47
0.0
 47
0.0
 47
1.0
 47
0.0
 47
0.0
 47
0.0
 47
0.0
 47
1.0
171
     0
 49
0.0208333333333333
 49
0.0
 49
0.0
 49
0.0
 49
0.0
 49
0.0208333333333333
 49
0.0
 49
0.0
 49
0.0
 49
0.0
 49
1.0
 49
0.0
 49
0.0
 49
0.0
 49
0.0
 49
1.0
175
     0
142
0.0208333333333333
142
0.0
142
0.0
142
0.0
142
0.0
142
0.0208333333333333
142
0.0
142
0.0
142
0.0
142
0.0
142
1.0
142
0.0
142
0.0
142
0.0
142
0.0
142
1.0
179
     0
144
0.0208333333333333
144
0.0
144
0.0
144
0.0
144
0.0
144
0.0208333333333333
144
0.0
144
0.0
144
0.0
144
0.0
144
1.0
144
0.0
144
0.0
144
0.0
144
0.0
144
1.0
147
0.0208333333333333
147
0.0
147
0.0
147
0.0
147
0.0
147
0.0208333333333333
147
0.0
147
0.0
147
0.0
147
0.0
147
1.0
147
0.0
147
0.0
147
0.0
147
0.0
147
1.0
  0
MLEADERSTYLE
  5
834
102
{ACAD_REACTORS
330
833
102
}
330
833
100
AcDbMLeaderStyle
170
     2
171
     1
172
     0
 90
        2
 40
0.0
 41
0.0
173
     1
 91
-1056964608
340
14
 92
       -2
290
     1
 42
0.09
291
     1
 43
0.36
  3
Standard
 44
0.18
300

342
11
174
     1
178
     6
175
     1
176
     0
 93
-1056964608
 45
0.18
292
     0
297
     0
 46
0.18
 94
-1056964608
 47
1.0
 49
1.0
140
1.0
293
     1
141
0.0
294
     1
177
     0
142
1.0
295
     0
296
     0
143
0.125
1001
ACAD_MLEADERVER
1070
     2
  0
MLINESTYLE
  5
18
102
{ACAD_REACTORS
330
17
102
}
330
17
100
AcDbMlineStyle
  2
STANDARD
 70
     0
  3

 62
   256
 51
90.0
 52
90.0
 71
     2
 49
0.5
 62
   256
  6
BYLAYER
 49
-0.5
 62
   256
  6
BYLAYER
  0
ACDBPLACEHOLDER
  5
F
102
{ACAD_REACTORS
330
E
102
}
330
E
  0
SCALE
  5
812
102
{ACAD_REACTORS
330
811
102
}
330
811
100
AcDbScale
 70
     0
300
1:1
140
1.0
141
1.0
290
     1
  0
SCALE
  5
813
102
{ACAD_REACTORS
330
811
102
}
330
811
100
AcDbScale
 70
     0
300
1:2
140
1.0
141
2.0
290
     0
  0
SCALE
  5
814
102
{ACAD_REACTORS
330
811
102
}
330
811
100
AcDbScale
 70
     0
300
1:4
140
1.0
141
4.0
290
     0
  0
SCALE
  5
815
102
{ACAD_REACTORS
330
811
102
}
330
811
100
AcDbScale
 70
     0
300
1:5
140
1.0
141
5.0
290
     0
  0
SCALE
  5
816
102
{ACAD_REACTORS
330
811
102
}
330
811
100
AcDbScale
 70
     0
300
1:8
140
1.0
141
8.0
290
     0
  0
SCALE
  5
817
102
{ACAD_REACTORS
330
811
102
}
330
811
100
AcDbScale
 70
     0
300
1:10
140
1.0
141
10.0
290
     0
  0
SCALE
  5
818
102
{ACAD_REACTORS
330
811
102
}
330
811
100
AcDbScale
 70
     0
300
1:16
140
1.0
141
16.0
290
     0
  0
SCALE
  5
819
102
{ACAD_REACTORS
330
811
102
}
330
811
100
AcDbScale
 70
     0
300
1:20
140
1.0
141
20.0
290
     0
  0
SCALE
  5
81A
102
{ACAD_REACTORS
330
811
102
}
330
811
100
AcDbScale
 70
     0
300
1:30
140
1.0
141
30.0
290
     0
  0
SCALE
  5
81B
102
{ACAD_REACTORS
330
811
102
}
330
811
100
AcDbScale
 70
     0
300
1:40
140
1.0
141
40.0
290
     0
  0
SCALE
  5
81C
102
{ACAD_REACTORS
330
811
102
}
330
811
100
AcDbScale
 70
     0
300
1:50
140
1.0
141
50.0
290
     0
  0
SCALE
  5
81D
102
{ACAD_REACTORS
330
811
102
}
330
811
100
AcDbScale
 70
     0
300
1:100
140
1.0
141
100.0
290
     0
  0
SCALE
  5
81E
102
{ACAD_REACTORS
330
811
102
}
330
811
100
AcDbScale
 70
     0
300
2:1
140
2.0
141
1.0
290
     0
  0
SCALE
  5
81F
102
{ACAD_REACTORS
330
811
102
}
330
811
100
AcDbScale
 70
     0
300
4:1
140
4.0
141
1.0
290
     0
  0
SCALE
  5
820
102
{ACAD_REACTORS
330
811
102
}
330
811
100
AcDbScale
 70
     0
300
8:1
140
8.0
141
1.0
290
     0
  0
SCALE
  5
821
102
{ACAD_REACTORS
330
811
102
}
330
811
100
AcDbScale
 70
     0
300
10:1
140
10.0
141
1.0
290
     0
  0
SCALE
  5
822
102
{ACAD_REACTORS
330
811
102
}
330
811
100
AcDbScale
 70
     0
300
100:1
140
100.0
141
1.0
290
     0
  0
SCALE
  5
823
102
{ACAD_REACTORS
330
811
102
}
330
811
100
AcDbScale
 70
     0
300
1/128" = 1'-0"
140
0.0078125
141
12.0
290
     0
  0
SCALE
  5
824
102
{ACAD_REACTORS
330
811
102
}
330
811
100
AcDbScale
 70
     0
300
1/64" = 1'-0"
140
0.015625
141
12.0
290
     0
  0
SCALE
  5
825
102
{ACAD_REACTORS
330
811
102
}
330
811
100
AcDbScale
 70
     0
300
1/32" = 1'-0"
140
0.03125
141
12.0
290
     0
  0
SCALE
  5
826
102
{ACAD_REACTORS
330
811
102
}
330
811
100
AcDbScale
 70
     0
300
1/16" = 1'-0"
140
0.0625
141
12.0
290
     0
  0
SCALE
  5
827
102
{ACAD_REACTORS
330
811
102
}
330
811
100
AcDbScale
 70
     0
300
3/32" = 1'-0"
140
0.09375
141
12.0
290
     0
  0
SCALE
  5
828
102
{ACAD_REACTORS
330
811
102
}
330
811
100
AcDbScale
 70
     0
300
1/8" = 1'-0"
140
0.125
141
12.0
290
     0
  0
SCALE
  5
829
102
{ACAD_REACTORS
330
811
102
}
330
811
100
AcDbScale
 70
     0
300
3/16" = 1'-0"
140
0.1875
141
12.0
290
     0
  0
SCALE
  5
82A
102
{ACAD_REACTORS
330
811
102
}
330
811
100
AcDbScale
 70
     0
300
1/4" = 1'-0"
140
0.25
141
12.0
290
     0
  0
SCALE
  5
82B
102
{ACAD_REACTORS
330
811
102
}
330
811
100
AcDbScale
 70
     0
300
3/8" = 1'-0"
140
0.375
141
12.0
290
     0
  0
SCALE
  5
82C
102
{ACAD_REACTORS
330
811
102
}
330
811
100
AcDbScale
 70
     0
300
1/2" = 1'-0"
140
0.5
141
12.0
290
     0
  0
SCALE
  5
82D
102
{ACAD_REACTORS
330
811
102
}
330
811
100
AcDbScale
 70
     0
300
3/4" = 1'-0"
140
0.75
141
12.0
290
     0
  0
SCALE
  5
82E
102
{ACAD_REACTORS
330
811
102
}
330
811
100
AcDbScale
 70
     0
300
1" = 1'-0"
140
1.0
141
12.0
290
     0
  0
SCALE
  5
82F
102
{ACAD_REACTORS
330
811
102
}
330
811
100
AcDbScale
 70
     0
300
1-1/2" = 1'-0"
140
1.5
141
12.0
290
     0
  0
SCALE
  5
830
102
{ACAD_REACTORS
330
811
102
}
330
811
100
AcDbScale
 70
     0
300
3" = 1'-0"
140
3.0
141
12.0
290
     0
  0
SCALE
  5
831
102
{ACAD_REACTORS
330
811
102
}
330
811
100
AcDbScale
 70
     0
300
6" = 1'-0"
140
6.0
141
12.0
290
     0
  0
SCALE
  5
832
102
{ACAD_REACTORS
330
811
102
}
330
811
100
AcDbScale
 70
     0
300
1'-0" = 1'-0"
140
12.0
141
12.0
290
     0
  0
TABLESTYLE
  5
7C7
102
{ACAD_XDICTIONARY
360
AF2
102
}
102
{ACAD_REACTORS
330
7C6
102
}
330
7C6
100
AcDbTableStyle
  3
Standard
 70
     0
 71
     0
 40
0.06
 41
0.06
280
     0
281
     0
  7
Standard
140
0.18
170
     2
 62
     0
 63
     7
283
     0
274
    -2
284
     1
 64
     0
275
    -2
285
     1
 65
     0
276
    -2
286
     1
 66
     0
277
    -2
287
     1
 67
     0
278
    -2
288
     1
 68
     0
279
    -2
289
     1
 69
     0
  7
Standard
140
0.25
170
     5
 62
     0
 63
     7
283
     0
274
    -2
284
     1
 64
     0
275
    -2
285
     1
 65
     0
276
    -2
286
     1
 66
     0
277
    -2
287
     1
 67
     0
278
    -2
288
     1
 68
     0
279
    -2
289
     1
 69
     0
  7
Standard
140
0.18
170
     5
 62
     0
 63
     7
283
     0
274
    -2
284
     1
 64
     0
275
    -2
285
     1
 65
     0
276
    -2
286
     1
 66
     0
277
    -2
287
     1
 67
     0
278
    -2
288
     1
 68
     0
279
    -2
289
     1
 69
     0
  0
VISUALSTYLE
  5
806
102
{ACAD_REACTORS
330
800
102
}
330
800
100
AcDbVisualStyle
  2
2dWireframe
 70
     4
 71
     0
 72
     2
 73
     0
 90
        0
 40
-0.6
 41
-30.0
 62
     5
 63
     7
 74
     1
 91
        4
 64
     7
 65
   257
 75
     1
175
     1
 42
1.0
 92
        0
 66
   257
 43
1.0
 76
     1
 77
     6
 78
     2
 67
     7
 79
     5
170
     0
171
     0
290
     0
174
     0
 93
        1
 44
0.0
173
     0
291
     0
 45
0.0
1001
ACAD
1000
AcDbSavedByObjectVersion
1070
     0
1000
AcDbSavedByObjectVersion
1070
     0
  0
VISUALSTYLE
  5
808
102
{ACAD_REACTORS
330
800
102
}
330
800
100
AcDbVisualStyle
  2
3D Hidden
 70
     6
 71
     1
 72
     2
 73
     2
 90
        0
 40
-0.6
 41
-30.0
 62
     5
 63
     7
 74
     2
 91
        2
 64
     7
 65
   257
 75
     2
175
     1
 42
40.0
 92
        0
 66
   257
 43
1.0
 76
     1
 77
     6
 78
     2
 67
     7
 79
     3
170
     0
171
     0
290
     0
174
     0
 93
        1
 44
0.0
173
     0
291
     0
 45
0.0
1001
ACAD
1000
AcDbSavedByObjectVersion
1070
     0
1000
AcDbSavedByObjectVersion
1070
     0
  0
VISUALSTYLE
  5
807
102
{ACAD_REACTORS
330
800
102
}
330
800
100
AcDbVisualStyle
  2
3dWireframe
 70
     5
 71
     0
 72
     2
 73
     0
 90
        0
 40
-0.6
 41
-30.0
 62
     5
 63
     7
 74
     1
 91
        4
 64
     7
 65
   257
 75
     1
175
     1
 42
1.0
 92
        0
 66
   257
 43
1.0
 76
     1
 77
     6
 78
     2
 67
     7
 79
     5
170
     0
171
     0
290
     0
174
     0
 93
        1
 44
0.0
173
     0
291
     0
 45
0.0
1001
ACAD
1000
AcDbSavedByObjectVersion
1070
     0
1000
AcDbSavedByObjectVersion
1070
     0
  0
VISUALSTYLE
  5
805
102
{ACAD_REACTORS
330
800
102
}
330
800
100
AcDbVisualStyle
  2
Basic
 70
     7
 71
     1
 72
     0
 73
     1
 90
        0
 40
-0.6
 41
-30.0
 62
     5
 63
     7
 74
     0
 91
        4
 64
     7
 65
   257
 75
     1
175
     1
 42
1.0
 92
        8
 66
     7
 43
1.0
 76
     1
 77
     6
 78
     2
 67
     7
 79
     5
170
     0
171
     0
290
     0
174
     0
 93
        1
 44
0.0
173
     0
291
     1
 45
0.0
1001
ACAD
1000
AcDbSavedByObjectVersion
1070
     0
1000
AcDbSavedByObjectVersion
1070
     0
  0
VISUALSTYLE
  5
80C
102
{ACAD_REACTORS
330
800
102
}
330
800
100
AcDbVisualStyle
  2
Brighten
 70
    12
 71
     2
 72
     2
 73
     0
 90
        0
 40
-0.6
 41
-30.0
 62
     5
 63
     7
 74
     1
 91
        4
 64
     7
 65
   257
 75
     1
175
     1
 42
1.0
 92
        8
 66
     7
 43
1.0
 76
     1
 77
     6
 78
     2
 67
     7
 79
     5
170
     0
171
     0
290
     0
174
     0
 93
        1
 44
50.0
173
     0
291
     1
 45
0.0
1001
ACAD
1000
AcDbSavedByObjectVersion
1070
     0
1000
AcDbSavedByObjectVersion
1070
     0
  0
VISUALSTYLE
  5
810
102
{ACAD_REACTORS
330
800
102
}
330
800
100
AcDbVisualStyle
  2
ColorChange
 70
    16
 71
     2
 72
     2
 73
     3
 90
        0
 40
-0.6
 41
-30.0
 62
     5
 63
     8
 74
     1
 91
        4
 64
     7
 65
   257
 75
     1
175
     1
 42
1.0
 92
        8
 66
     8
 43
1.0
 76
     1
 77
     6
 78
     2
 67
     7
 79
     5
170
     0
171
     0
290
     0
174
     0
 93
        1
 44
0.0
173
     0
291
     1
 45
0.0
1001
ACAD
1000
AcDbSavedByObjectVersion
1070
     0
1000
AcDbSavedByObjectVersion
1070
     0
  0
VISUALSTYLE
  5
809
102
{ACAD_REACTORS
330
800
102
}
330
800
100
AcDbVisualStyle
  2
Conceptual
 70
     9
 71
     3
 72
     2
 73
     0
 90
        0
 40
-0.6
 41
-30.0
 62
     5
 63
     7
 74
     2
 91
        2
 64
     7
 65
   257
 75
     1
175
     1
 42
40.0
 92
        8
 66
     7
 43
1.0
 76
     1
 77
     6
 78
     2
 67
     7
 79
     3
170
     0
171
     0
290
     0
174
     0
 93
        1
 44
0.0
173
     0
291
     0
 45
0.0
1001
ACAD
1000
AcDbSavedByObjectVersion
1070
     0
1000
AcDbSavedByObjectVersion
1070
     0
  0
VISUALSTYLE
  5
80B
102
{ACAD_REACTORS
330
800
102
}
330
800
100
AcDbVisualStyle
  2
Dim
 70
    11
 71
     2
 72
     2
 73
     0
 90
        0
 40
-0.6
 41
-30.0
 62
     5
 63
     7
 74
     1
 91
        4
 64
     7
 65
   257
 75
     1
175
     1
 42
1.0
 92
        8
 66
     7
 43
1.0
 76
     1
 77
     6
 78
     2
 67
     7
 79
     5
170
     0
171
     0
290
     0
174
     0
 93
        1
 44
-50.0
173
     0
291
     1
 45
0.0
1001
ACAD
1000
AcDbSavedByObjectVersion
1070
     0
1000
AcDbSavedByObjectVersion
1070
     0
  0
VISUALSTYLE
  5
80F
102
{ACAD_REACTORS
330
800
102
}
330
800
100
AcDbVisualStyle
  2
Facepattern
 70
    15
 71
     2
 72
     2
 73
     0
 90
        0
 40
-0.6
 41
-30.0
 62
     5
 63
     7
 74
     1
 91
        4
 64
     7
 65
   257
 75
     1
175
     1
 42
1.0
 92
        8
 66
     7
 43
1.0
 76
     1
 77
     6
 78
     2
 67
     7
 79
     5
170
     0
171
     0
290
     0
174
     0
 93
        1
 44
0.0
173
     0
291
     1
 45
0.0
1001
ACAD
1000
AcDbSavedByObjectVersion
1070
     0
1000
AcDbSavedByObjectVersion
1070
     0
  0
VISUALSTYLE
  5
801
102
{ACAD_REACTORS
330
800
102
}
330
800
100
AcDbVisualStyle
  2
Flat
 70
     0
 71
     2
 72
     1
 73
     1
 90
        2
 40
-0.6
 41
30.0
 62
     5
 63
     7
 74
     0
 91
        4
 64
     7
 65
   257
 75
     1
175
     1
 42
1.0
 92
        8
 66
     7
 43
1.0
 76
     1
 77
     6
 78
     2
 67
     7
 79
     5
170
     0
171
     0
290
     0
174
     0
 93
       13
 44
0.0
173
     0
291
     1
 45
0.0
1001
ACAD
1000
AcDbSavedByObjectVersion
1070
     0
1000
AcDbSavedByObjectVersion
1070
     0
  0
VISUALSTYLE
  5
802
102
{ACAD_REACTORS
330
800
102
}
330
800
100
AcDbVisualStyle
  2
FlatWithEdges
 70
     1
 71
     2
 72
     1
 73
     1
 90
        2
 40
-0.6
 41
30.0
 62
     5
 63
     7
 74
     1
 91
        4
 64
     7
 65
   257
 75
     1
175
     1
 42
1.0
 92
        0
 66
   257
 43
1.0
 76
     1
 77
     6
 78
     2
 67
     7
 79
     5
170
     0
171
     0
290
     0
174
     0
 93
       13
 44
0.0
173
     0
291
     1
 45
0.0
1001
ACAD
1000
AcDbSavedByObjectVersion
1070
     0
1000
AcDbSavedByObjectVersion
1070
     0
  0
VISUALSTYLE
  5
803
102
{ACAD_REACTORS
330
800
102
}
330
800
100
AcDbVisualStyle
  2
Gouraud
 70
     2
 71
     2
 72
     2
 73
     1
 90
        2
 40
-0.6
 41
30.0
 62
     5
 63
     7
 74
     0
 91
        4
 64
     7
 65
   257
 75
     1
175
     1
 42
1.0
 92
        0
 66
     7
 43
1.0
 76
     1
 77
     6
 78
     2
 67
     7
 79
     5
170
     0
171
     0
290
     0
174
     0
 93
       13
 44
0.0
173
     0
291
     1
 45
0.0
1001
ACAD
1000
AcDbSavedByObjectVersion
1070
     0
1000
AcDbSavedByObjectVersion
1070
     0
  0
VISUALSTYLE
  5
804
102
{ACAD_REACTORS
330
800
102
}
330
800
100
AcDbVisualStyle
  2
GouraudWithEdges
 70
     3
 71
     2
 72
     2
 73
     1
 90
        2
 40
-0.6
 41
30.0
 62
     5
 63
     7
 74
     1
 91
        4
 64
     7
 65
   257
 75
     1
175
     1
 42
1.0
 92
        0
 66
   257
 43
1.0
 76
     1
 77
     6
 78
     2
 67
     7
 79
     5
170
     0
171
     0
290
     0
174
     0
 93
       13
 44
0.0
173
     0
291
     1
 45
0.0
1001
ACAD
1000
AcDbSavedByObjectVersion
1070
     0
1000
AcDbSavedByObjectVersion
1070
     0
  0
VISUALSTYLE
  5
80E
102
{ACAD_REACTORS
330
800
102
}
330
800
100
AcDbVisualStyle
  2
Linepattern
 70
    14
 71
     2
 72
     2
 73
     0
 90
        0
 40
-0.6
 41
-30.0
 62
     5
 63
     7
 74
     1
 91
        4
 64
     7
 65
   257
 75
     7
175
     7
 42
1.0
 92
        8
 66
     7
 43
1.0
 76
     1
 77
     6
 78
     2
 67
     7
 79
     5
170
     0
171
     0
290
     0
174
     0
 93
        1
 44
0.0
173
     0
291
     1
 45
0.0
1001
ACAD
1000
AcDbSavedByObjectVersion
1070
     0
1000
AcDbSavedByObjectVersion
1070
     0
  0
VISUALSTYLE
  5
80A
102
{ACAD_REACTORS
330
800
102
}
330
800
100
AcDbVisualStyle
  2
Realistic
 70
     8
 71
     2
 72
     2
 73
     0
 90
        0
 40
-0.6
 41
-30.0
 62
     5
 63
     7
 74
     1
 91
        0
 64
     7
 65
   257
 75
     1
175
     1
 42
1.0
 92
        8
 66
     8
 43
1.0
 76
     1
 77
     6
 78
     2
 67
     7
 79
     5
170
     0
171
     0
290
     0
174
     0
 93
       13
 44
0.0
173
     0
291
     0
 45
0.0
1001
ACAD
1000
AcDbSavedByObjectVersion
1070
     0
1000
AcDbSavedByObjectVersion
1070
     0
  0
VISUALSTYLE
  5
80D
102
{ACAD_REACTORS
330
800
102
}
330
800
100
AcDbVisualStyle
  2
Thicken
 70
    13
 71
     2
 72
     2
 73
     0
 90
        0
 40
-0.6
 41
-30.0
 62
     5
 63
     7
 74
     1
 91
        4
 64
     7
 65
   257
 75
     1
175
     1
 42
1.0
 92
       12
 66
     7
 43
1.0
 76
     1
 77
     6
 78
     2
 67
     7
 79
     5
170
     0
171
     0
290
     0
174
     0
 93
        1
 44
0.0
173
     0
291
     1
 45
0.0
1001
ACAD
1000
AcDbSavedByObjectVersion
1070
     0
1000
AcDbSavedByObjectVersion
1070
     0
  0
DICTIONARYVAR
  5
AEF
102
{ACAD_REACTORS
330
7AF
102
}
330
7AF
100
DictionaryVariables
280
     0
  1
1:1
  0
DICTIONARYVAR
  5
AEE
102
{ACAD_REACTORS
330
7AF
102
}
330
7AF
100
DictionaryVariables
280
     0
  1
STANDARD
  0
DICTIONARYVAR
  5
7D3
102
{ACAD_REACTORS
330
7AF
102
}
330
7AF
100
DictionaryVariables
280
     0
  1
STANDARD
  0
DICTIONARYVAR
  5
7B0
102
{ACAD_REACTORS
330
7AF
102
}
330
7AF
100
DictionaryVariables
280
     0
  1
1
  0
DICTIONARYVAR
  5
7DC
102
{ACAD_REACTORS
330
7AF
102
}
330
7AF
100
DictionaryVariables
280
     0
  1
0
  0
DICTIONARYVAR
  5
AF1
102
{ACAD_REACTORS
330
7AF
102
}
330
7AF
100
DictionaryVariables
280
     0
  1
0
  0
DICTIONARYVAR
  5
AF0
102
{ACAD_REACTORS
330
7AF
102
}
330
7AF
100
DictionaryVariables
280
     0
  1
127
  0
DICTIONARY
  5
FE3
330
1E
100
AcDbDictionary
280
     1
281
     1
  3
ACAD_XREC_ROUNDTRIP
360
FE4
  0
DICTIONARY
  5
FE7
330
26
100
AcDbDictionary
280
     1
281
     1
  3
ACAD_XREC_ROUNDTRIP
360
FE8
  0
DICTIONARY
  5
FE5
330
22
100
AcDbDictionary
280
     1
281
     1
  3
ACAD_XREC_ROUNDTRIP
360
FE6
  0
DICTIONARY
  5
ADF
330
ADE
100
AcDbDictionary
280
     1
281
     1
  3
ACAD_XREC_ROUNDTRIP
360
B00
  3
BUMPTILE
360
AE4
  3
DIFFUSETILE
360
AE0
  3
OPACITYTILE
360
AE3
  3
REFLECTIONTILE
360
AE2
  3
REFRACTIONTILE
360
AE5
  3
SPECULARTILE
360
AE1
  0
DICTIONARY
  5
7F1
330
7F0
100
AcDbDictionary
280
     1
281
     1
  3
ACAD_XREC_ROUNDTRIP
360
AFE
  3
BUMPTILE
360
7F3
  3
DIFFUSETILE
360
7F2
  3
OPACITYTILE
360
7F6
  3
REFLECTIONTILE
360
7F5
  3
REFRACTIONTILE
360
7F7
  3
SPECULARTILE
360
7F4
  0
DICTIONARY
  5
7E9
330
7E8
100
AcDbDictionary
280
     1
281
     1
  3
ACAD_XREC_ROUNDTRIP
360
AFD
  3
BUMPTILE
360
7EB
  3
DIFFUSETILE
360
7EA
  3
OPACITYTILE
360
7EE
  3
REFLECTIONTILE
360
7ED
  3
REFRACTIONTILE
360
7EF
  3
SPECULARTILE
360
7EC
  0
DICTIONARY
  5
7F9
330
7F8
100
AcDbDictionary
280
     1
281
     1
  3
ACAD_XREC_ROUNDTRIP
360
AFF
  3
BUMPTILE
360
7FB
  3
DIFFUSETILE
360
7FA
  3
OPACITYTILE
360
7FE
  3
REFLECTIONTILE
360
7FD
  3
REFRACTIONTILE
360
7FF
  3
SPECULARTILE
360
7FC
  0
DICTIONARY
  5
AF2
330
7C7
100
AcDbDictionary
280
     1
281
     1
  3
ACAD_ROUNDTRIP_2008_TABLESTYLE_CELLSTYLEMAP
360
FE1
  3
ACAD_XREC_ROUNDTRIP
360
FE9
  0
XRECORD
  5
FE4
102
{ACAD_REACTORS
330
FE3
102
}
330
FE3
100
AcDbXrecord
280
     1
102
SHADEPLOT
 70
     0
102
SHADEPLOTRESLEVEL
 70
     2
102
SHADEPLOTCUSTOMDPI
 70
   300
  0
XRECORD
  5
FE8
102
{ACAD_REACTORS
330
FE7
102
}
330
FE7
100
AcDbXrecord
280
     1
102
SHADEPLOT
 70
     0
102
SHADEPLOTRESLEVEL
 70
     2
102
SHADEPLOTCUSTOMDPI
 70
   300
  0
XRECORD
  5
FE6
102
{ACAD_REACTORS
330
FE5
102
}
330
FE5
100
AcDbXrecord
280
     1
102
SHADEPLOT
 70
     0
102
SHADEPLOTRESLEVEL
 70
     2
102
SHADEPLOTCUSTOMDPI
 70
   300
  0
XRECORD
  5
B00
102
{ACAD_REACTORS
330
ADF
102
}
330
ADF
100
AcDbXrecord
280
     1
102
MATERIAL
148
0.0
149
0.0
149
0.0
 93
        0
 94
      127
282
     0
 72
     0
 77
     0
171
     0
175
     0
179
     0
273
     0
  0
XRECORD
  5
AE4
102
{ACAD_REACTORS
330
ADF
102
}
330
ADF
100
AcDbXrecord
280
     1
270
     1
271
     1
  0
XRECORD
  5
AE0
102
{ACAD_REACTORS
330
ADF
102
}
330
ADF
100
AcDbXrecord
280
     1
270
     1
271
     1
  0
XRECORD
  5
AE3
102
{ACAD_REACTORS
330
ADF
102
}
330
ADF
100
AcDbXrecord
280
     1
270
     1
271
     1
  0
XRECORD
  5
AE2
102
{ACAD_REACTORS
330
ADF
102
}
330
ADF
100
AcDbXrecord
280
     1
270
     1
271
     1
  0
XRECORD
  5
AE5
102
{ACAD_REACTORS
330
ADF
102
}
330
ADF
100
AcDbXrecord
280
     1
270
     1
271
     1
  0
XRECORD
  5
AE1
102
{ACAD_REACTORS
330
ADF
102
}
330
ADF
100
AcDbXrecord
280
     1
270
     1
271
     1
  0
XRECORD
  5
AFE
102
{ACAD_REACTORS
330
7F1
102
}
330
7F1
100
AcDbXrecord
280
     1
102
MATERIAL
148
0.0
149
0.0
149
0.0
 93
        0
 94
      127
282
     0
 72
     0
 77
     0
171
     0
175
     0
179
     0
273
     0
  0
XRECORD
  5
7F3
102
{ACAD_REACTORS
330
7F1
102
}
330
7F1
100
AcDbXrecord
280
     1
270
     1
271
     1
  0
XRECORD
  5
7F2
102
{ACAD_REACTORS
330
7F1
102
}
330
7F1
100
AcDbXrecord
280
     1
270
     1
271
     1
  0
XRECORD
  5
7F6
102
{ACAD_REACTORS
330
7F1
102
}
330
7F1
100
AcDbXrecord
280
     1
270
     1
271
     1
  0
XRECORD
  5
7F5
102
{ACAD_REACTORS
330
7F1
102
}
330
7F1
100
AcDbXrecord
280
     1
270
     1
271
     1
  0
XRECORD
  5
7F7
102
{ACAD_REACTORS
330
7F1
102
}
330
7F1
100
AcDbXrecord
280
     1
270
     1
271
     1
  0
XRECORD
  5
7F4
102
{ACAD_REACTORS
330
7F1
102
}
330
7F1
100
AcDbXrecord
280
     1
270
     1
271
     1
  0
XRECORD
  5
AFD
102
{ACAD_REACTORS
330
7E9
102
}
330
7E9
100
AcDbXrecord
280
     1
102
MATERIAL
148
0.0
149
0.0
149
0.0
 93
        0
 94
      127
282
     0
 72
     0
 77
     0
171
     0
175
     0
179
     0
273
     0
  0
XRECORD
  5
7EB
102
{ACAD_REACTORS
330
7E9
102
}
330
7E9
100
AcDbXrecord
280
     1
270
     1
271
     1
  0
XRECORD
  5
7EA
102
{ACAD_REACTORS
330
7E9
102
}
330
7E9
100
AcDbXrecord
280
     1
270
     1
271
     1
  0
XRECORD
  5
7EE
102
{ACAD_REACTORS
330
7E9
102
}
330
7E9
100
AcDbXrecord
280
     1
270
     1
271
     1
  0
XRECORD
  5
7ED
102
{ACAD_REACTORS
330
7E9
102
}
330
7E9
100
AcDbXrecord
280
     1
270
     1
271
     1
  0
XRECORD
  5
7EF
102
{ACAD_REACTORS
330
7E9
102
}
330
7E9
100
AcDbXrecord
280
     1
270
     1
271
     1
  0
XRECORD
  5
7EC
102
{ACAD_REACTORS
330
7E9
102
}
330
7E9
100
AcDbXrecord
280
     1
270
     1
271
     1
  0
XRECORD
  5
AFF
102
{ACAD_REACTORS
330
7F9
102
}
330
7F9
100
AcDbXrecord
280
     1
102
MATERIAL
148
0.0
149
0.0
149
0.0
 93
        0
 94
      127
282
     0
 72
     0
 77
     0
171
     0
175
     0
179
     0
273
     0
  0
XRECORD
  5
7FB
102
{ACAD_REACTORS
330
7F9
102
}
330
7F9
100
AcDbXrecord
280
     1
270
     1
271
     1
  0
XRECORD
  5
7FA
102
{ACAD_REACTORS
330
7F9
102
}
330
7F9
100
AcDbXrecord
280
     1
270
     1
271
     1
  0
XRECORD
  5
7FE
102
{ACAD_REACTORS
330
7F9
102
}
330
7F9
100
AcDbXrecord
280
     1
270
     1
271
     1
  0
XRECORD
  5
7FD
102
{ACAD_REACTORS
330
7F9
102
}
330
7F9
100
AcDbXrecord
280
     1
270
     1
271
     1
  0
XRECORD
  5
7FF
102
{ACAD_REACTORS
330
7F9
102
}
330
7F9
100
AcDbXrecord
280
     1
270
     1
271
     1
  0
XRECORD
  5
7FC
102
{ACAD_REACTORS
330
7F9
102
}
330
7F9
100
AcDbXrecord
280
     1
270
     1
271
     1
  0
CELLSTYLEMAP
  5
FE1
102
{ACAD_REACTORS
330
AF2
102
}
330
AF2
100
AcDbCellStyleMap
 90
        3
300
CELLSTYLE
  1
TABLEFORMAT_BEGIN
 90
        5
170
     1
 91
        0
 92
    32768
 62
   257
 93
        1
300
CONTENTFORMAT
  1
CONTENTFORMAT_BEGIN
 90
        0
 91
        0
 92
        4
 93
        0
300

 40
0.0
140
1.0
 94
        5
 62
     0
340
11
144
0.25
309
CONTENTFORMAT_END
171
     1
301
MARGIN
  1
CELLMARGIN_BEGIN
 40
0.06
 40
0.06
 40
0.06
 40
0.06
 40
0.18
 40
0.18
309
CELLMARGIN_END
 94
        6
 95
        1
302
GRIDFORMAT
  1
GRIDFORMAT_BEGIN
 90
        0
 91
        1
 62
     0
 92
       -2
340
0
 93
        0
 40
0.045
309
GRIDFORMAT_END
 95
        2
302
GRIDFORMAT
  1
GRIDFORMAT_BEGIN
 90
        0
 91
        1
 62
     0
 92
       -2
340
0
 93
        0
 40
0.045
309
GRIDFORMAT_END
 95
        4
302
GRIDFORMAT
  1
GRIDFORMAT_BEGIN
 90
        0
 91
        1
 62
     0
 92
       -2
340
0
 93
        0
 40
0.045
309
GRIDFORMAT_END
 95
        8
302
GRIDFORMAT
  1
GRIDFORMAT_BEGIN
 90
        0
 91
        1
 62
     0
 92
       -2
340
0
 93
        0
 40
0.045
309
GRIDFORMAT_END
 95
       16
302
GRIDFORMAT
  1
GRIDFORMAT_BEGIN
 90
        0
 91
        1
 62
     0
 92
       -2
340
0
 93
        0
 40
0.045
309
GRIDFORMAT_END
 95
       32
302
GRIDFORMAT
  1
GRIDFORMAT_BEGIN
 90
        0
 91
        1
 62
     0
 92
       -2
340
0
 93
        0
 40
0.045
309
GRIDFORMAT_END
309
TABLEFORMAT_END
  1
CELLSTYLE_BEGIN
 90
        1
 91
        1
300
_TITLE
309
CELLSTYLE_END
300
CELLSTYLE
  1
TABLEFORMAT_BEGIN
 90
        5
170
     1
 91
        0
 92
        0
 62
   257
 93
        1
300
CONTENTFORMAT
  1
CONTENTFORMAT_BEGIN
 90
        0
 91
        0
 92
        4
 93
        0
300

 40
0.0
140
1.0
 94
        5
 62
     0
340
11
144
0.18
309
CONTENTFORMAT_END
171
     1
301
MARGIN
  1
CELLMARGIN_BEGIN
 40
0.06
 40
0.06
 40
0.06
 40
0.06
 40
0.18
 40
0.18
309
CELLMARGIN_END
 94
        6
 95
        1
302
GRIDFORMAT
  1
GRIDFORMAT_BEGIN
 90
        0
 91
        1
 62
     0
 92
       -2
340
0
 93
        0
 40
0.045
309
GRIDFORMAT_END
 95
        2
302
GRIDFORMAT
  1
GRIDFORMAT_BEGIN
 90
        0
 91
        1
 62
     0
 92
       -2
340
0
 93
        0
 40
0.045
309
GRIDFORMAT_END
 95
        4
302
GRIDFORMAT
  1
GRIDFORMAT_BEGIN
 90
        0
 91
        1
 62
     0
 92
       -2
340
0
 93
        0
 40
0.045
309
GRIDFORMAT_END
 95
        8
302
GRIDFORMAT
  1
GRIDFORMAT_BEGIN
 90
        0
 91
        1
 62
     0
 92
       -2
340
0
 93
        0
 40
0.045
309
GRIDFORMAT_END
 95
       16
302
GRIDFORMAT
  1
GRIDFORMAT_BEGIN
 90
        0
 91
        1
 62
     0
 92
       -2
340
0
 93
        0
 40
0.045
309
GRIDFORMAT_END
 95
       32
302
GRIDFORMAT
  1
GRIDFORMAT_BEGIN
 90
        0
 91
        1
 62
     0
 92
       -2
340
0
 93
        0
 40
0.045
309
GRIDFORMAT_END
309
TABLEFORMAT_END
  1
CELLSTYLE_BEGIN
 90
        2
 91
        1
300
_HEADER
309
CELLSTYLE_END
300
CELLSTYLE
  1
TABLEFORMAT_BEGIN
 90
        5
170
     1
 91
        0
 92
        0
 62
   257
 93
        1
300
CONTENTFORMAT
  1
CONTENTFORMAT_BEGIN
 90
        0
 91
        0
 92
        4
 93
        0
300

 40
0.0
140
1.0
 94
        2
 62
     0
340
11
144
0.18
309
CONTENTFORMAT_END
171
     1
301
MARGIN
  1
CELLMARGIN_BEGIN
 40
0.06
 40
0.06
 40
0.06
 40
0.06
 40
0.18
 40
0.18
309
CELLMARGIN_END
 94
        6
 95
        1
302
GRIDFORMAT
  1
GRIDFORMAT_BEGIN
 90
        0
 91
        1
 62
     0
 92
       -2
340
0
 93
        0
 40
0.045
309
GRIDFORMAT_END
 95
        2
302
GRIDFORMAT
  1
GRIDFORMAT_BEGIN
 90
        0
 91
        1
 62
     0
 92
       -2
340
0
 93
        0
 40
0.045
309
GRIDFORMAT_END
 95
        4
302
GRIDFORMAT
  1
GRIDFORMAT_BEGIN
 90
        0
 91
        1
 62
     0
 92
       -2
340
0
 93
        0
 40
0.045
309
GRIDFORMAT_END
 95
        8
302
GRIDFORMAT
  1
GRIDFORMAT_BEGIN
 90
        0
 91
        1
 62
     0
 92
       -2
340
0
 93
        0
 40
0.045
309
GRIDFORMAT_END
 95
       16
302
GRIDFORMAT
  1
GRIDFORMAT_BEGIN
 90
        0
 91
        1
 62
     0
 92
       -2
340
0
 93
        0
 40
0.045
309
GRIDFORMAT_END
 95
       32
302
GRIDFORMAT
  1
GRIDFORMAT_BEGIN
 90
        0
 91
        1
 62
     0
 92
       -2
340
0
 93
        0
 40
0.045
309
GRIDFORMAT_END
309
TABLEFORMAT_END
  1
CELLSTYLE_BEGIN
 90
        3
 91
        2
300
_DATA
309
CELLSTYLE_END
  0
XRECORD
  5
FE9
102
{ACAD_REACTORS
330
AF2
102
}
330
AF2
100
AcDbXrecord
280
     1
102
ACAD_ROUNDTRIP_PRE2007_TABLESTYLE
 90
        4
 91
        0
  1

 92
        4
 93
        0
  2

 94
        4
 95
        0
  3

  0
ENDSEC
  0
EOF
