  0
SECTION
  2
HEADER
  9
$ACADVER
  1
AC1015
  9
$ACADMAINTVER
 70
    20
  9
$DWGCODEPAGE
  3
ANSI_1252
  9
$INSBASE
 10
0.0
 20
0.0
 30
0.0
  9
$EXTMIN
 10
-0.000000002007992
 20
5.320847511291503
 30
0.0
  9
$EXTMAX
 10
12.26836776733398
 20
6.686799049377441
 30
2.500000001446014
  9
$LIMMIN
 10
0.0
 20
0.0
  9
$LIMMAX
 10
12.0
 20
9.0
  9
$ORTHOMODE
 70
     0
  9
$REGENMODE
 70
     1
  9
$FILLMODE
 70
     1
  9
$QTEXTMODE
 70
     0
  9
$MIRRTEXT
 70
     1
  9
$LTSCALE
 40
1.0
  9
$ATTMODE
 70
     1
  9
$TEXTSIZE
 40
0.2
  9
$TRACEWID
 40
0.05
  9
$TEXTSTYLE
  7
Standard
  9
$CLAYER
  8
0
  9
$CELTYPE
  6
ByLayer
  9
$CECOLOR
 62
   256
  9
$CELTSCALE
 40
1.0
  9
$DISPSILH
 70
     0
  9
$DIMSCALE
 40
1.0
  9
$DIMASZ
 40
0.18
  9
$DIMEXO
 40
0.0625
  9
$DIMDLI
 40
0.38
  9
$DIMRND
 40
0.0
  9
$DIMDLE
 40
0.0
  9
$DIMEXE
 40
0.18
  9
$DIMTP
 40
0.0
  9
$DIMTM
 40
0.0
  9
$DIMTXT
 40
0.18
  9
$DIMCEN
 40
0.09
  9
$DIMTSZ
 40
0.0
  9
$DIMTOL
 70
     0
  9
$DIMLIM
 70
     0
  9
$DIMTIH
 70
     1
  9
$DIMTOH
 70
     1
  9
$DIMSE1
 70
     0
  9
$DIMSE2
 70
     0
  9
$DIMTAD
 70
     0
  9
$DIMZIN
 70
     0
  9
$DIMBLK
  1
ArchTick
  9
$DIMASO
 70
     1
  9
$DIMSHO
 70
     1
  9
$DIMPOST
  1

  9
$DIMAPOST
  1

  9
$DIMALT
 70
     0
  9
$DIMALTD
 70
     2
  9
$DIMALTF
 40
25.4
  9
$DIMLFAC
 40
1.0
  9
$DIMTOFL
 70
     0
  9
$DIMTVP
 40
0.0
  9
$DIMTIX
 70
     0
  9
$DIMSOXD
 70
     0
  9
$DIMSAH
 70
     0
  9
$DIMBLK1
  1

  9
$DIMBLK2
  1

  9
$DIMSTYLE
  2
Copy of Standard
  9
$DIMCLRD
 70
     0
  9
$DIMCLRE
 70
     0
  9
$DIMCLRT
 70
     0
  9
$DIMTFAC
 40
1.0
  9
$DIMGAP
 40
0.09
  9
$DIMJUST
 70
     0
  9
$DIMSD1
 70
     0
  9
$DIMSD2
 70
     0
  9
$DIMTOLJ
 70
     1
  9
$DIMTZIN
 70
     0
  9
$DIMALTZ
 70
     0
  9
$DIMALTTZ
 70
     0
  9
$DIMUPT
 70
     0
  9
$DIMDEC
 70
     4
  9
$DIMTDEC
 70
     4
  9
$DIMALTU
 70
     2
  9
$DIMALTTD
 70
     2
  9
$DIMTXSTY
  7
Standard
  9
$DIMAUNIT
 70
     0
  9
$DIMADEC
 70
     0
  9
$DIMALTRND
 40
0.0
  9
$DIMAZIN
 70
     0
  9
$DIMDSEP
 70
    46
  9
$DIMATFIT
 70
     3
  9
$DIMFRAC
 70
     0
  9
$DIMLDRBLK
  1

  9
$DIMLUNIT
 70
     4
  9
$DIMLWD
 70
    -2
  9
$DIMLWE
 70
    -2
  9
$DIMTMOVE
 70
     0
  9
$LUNITS
 70
     2
  9
$LUPREC
 70
     4
  9
$SKETCHINC
 40
0.1
  9
$FILLETRAD
 40
0.5
  9
$AUNITS
 70
     0
  9
$AUPREC
 70
     0
  9
$MENU
  1
.
  9
$ELEVATION
 40
0.0
  9
$PELEVATION
 40
0.0
  9
$THICKNESS
 40
0.0
  9
$LIMCHECK
 70
     0
  9
$CHAMFERA
 40
0.5
  9
$CHAMFERB
 40
0.5
  9
$CHAMFERC
 40
1.0
  9
$CHAMFERD
 40
0.0
  9
$SKPOLY
 70
     0
  9
$TDCREATE
 40
2452587.497350764
  9
$TDUCREATE
 40
2452587.705684097
  9
$TDUPDATE
 40
2454459.465704155
  9
$TDUUPDATE
 40
2454459.674037489
  9
$TDINDWG
 40
0.5979800347
  9
$TDUSRTIMER
 40
0.5979798495
  9
$USRTIMER
 70
     1
  9
$ANGBASE
 50
0.0
  9
$ANGDIR
 70
     0
  9
$PDMODE
 70
     0
  9
$PDSIZE
 40
0.0
  9
$PLINEWID
 40
0.0
  9
$SPLFRAME
 70
     0
  9
$SPLINETYPE
 70
     6
  9
$SPLINESEGS
 70
     8
  9
$HANDSEED
  5
15BB
  9
$SURFTAB1
 70
     6
  9
$SURFTAB2
 70
     6
  9
$SURFTYPE
 70
     6
  9
$SURFU
 70
     6
  9
$SURFV
 70
     6
  9
$UCSBASE
  2

  9
$UCSNAME
  2

  9
$UCSORG
 10
0.0
 20
0.0
 30
0.0
  9
$UCSXDIR
 10
1.0
 20
0.0
 30
0.0
  9
$UCSYDIR
 10
0.0
 20
0.0
 30
1.0
  9
$UCSORTHOREF
  2

  9
$UCSORTHOVIEW
 70
     0
  9
$UCSORGTOP
 10
0.0
 20
0.0
 30
0.0
  9
$UCSORGBOTTOM
 10
0.0
 20
0.0
 30
0.0
  9
$UCSORGLEFT
 10
0.0
 20
0.0
 30
0.0
  9
$UCSORGRIGHT
 10
0.0
 20
0.0
 30
0.0
  9
$UCSORGFRONT
 10
0.0
 20
0.0
 30
0.0
  9
$UCSORGBACK
 10
0.0
 20
0.0
 30
0.0
  9
$PUCSBASE
  2

  9
$PUCSNAME
  2

  9
$PUCSORG
 10
0.0
 20
0.0
 30
0.0
  9
$PUCSXDIR
 10
1.0
 20
0.0
 30
0.0
  9
$PUCSYDIR
 10
0.0
 20
1.0
 30
0.0
  9
$PUCSORTHOREF
  2

  9
$PUCSORTHOVIEW
 70
     0
  9
$PUCSORGTOP
 10
0.0
 20
0.0
 30
0.0
  9
$PUCSORGBOTTOM
 10
0.0
 20
0.0
 30
0.0
  9
$PUCSORGLEFT
 10
0.0
 20
0.0
 30
0.0
  9
$PUCSORGRIGHT
 10
0.0
 20
0.0
 30
0.0
  9
$PUCSORGFRONT
 10
0.0
 20
0.0
 30
0.0
  9
$PUCSORGBACK
 10
0.0
 20
0.0
 30
0.0
  9
$USERI1
 70
     0
  9
$USERI2
 70
     0
  9
$USERI3
 70
     0
  9
$USERI4
 70
     0
  9
$USERI5
 70
     0
  9
$USERR1
 40
0.0
  9
$USERR2
 40
0.0
  9
$USERR3
 40
0.0
  9
$USERR4
 40
0.0
  9
$USERR5
 40
0.0
  9
$WORLDVIEW
 70
     1
  9
$SHADEDGE
 70
     3
  9
$SHADEDIF
 70
    70
  9
$TILEMODE
 70
     1
  9
$MAXACTVP
 70
    64
  9
$PINSBASE
 10
0.0
 20
0.0
 30
0.0
  9
$PLIMCHECK
 70
     0
  9
$PEXTMIN
 10
1.000000000000000E+20
 20
1.000000000000000E+20
 30
1.000000000000000E+20
  9
$PEXTMAX
 10
-1.000000000000000E+20
 20
-1.000000000000000E+20
 30
-1.000000000000000E+20
  9
$PLIMMIN
 10
0.0
 20
0.0
  9
$PLIMMAX
 10
12.0
 20
9.0
  9
$UNITMODE
 70
     0
  9
$VISRETAIN
 70
     1
  9
$PLINEGEN
 70
     0
  9
$PSLTSCALE
 70
     1
  9
$TREEDEPTH
 70
  3020
  9
$CMLSTYLE
  2
Standard
  9
$CMLJUST
 70
     0
  9
$CMLSCALE
 40
1.0
  9
$PROXYGRAPHICS
 70
     1
  9
$MEASUREMENT
 70
     0
  9
$CELWEIGHT
370
    -1
  9
$ENDCAPS
280
     0
  9
$JOINSTYLE
280
     0
  9
$LWDISPLAY
290
     0
  9
$INSUNITS
 70
     1
  9
$HYPERLINKBASE
  1

  9
$STYLESHEET
  1

  9
$XEDIT
290
     1
  9
$CEPSNTYPE
380
     0
  9
$PSTYLEMODE
290
     1
  9
$FINGERPRINTGUID
  2
{FDEAD576-A652-11D2-9A35-0060089B3A3F}
  9
$VERSIONGUID
  2
{007B3551-FD2D-4454-98E0-14126B6D246E}
  9
$EXTNAMES
290
     1
  9
$PSVPSCALE
 40
0.0
  9
$OLESTARTUP
290
     0
  0
ENDSEC
  0
SECTION
  2
CLASSES
  0
CLASS
  1
ACDBDICTIONARYWDFLT
  2
AcDbDictionaryWithDefault
  3
ObjectDBX Classes
 90
        0
280
     0
281
     0
  0
CLASS
  1
ACDBPLACEHOLDER
  2
AcDbPlaceHolder
  3
ObjectDBX Classes
 90
        0
280
     0
281
     0
  0
CLASS
  1
LAYOUT
  2
AcDbLayout
  3
ObjectDBX Classes
 90
        0
280
     0
281
     0
  0
CLASS
  1
DICTIONARYVAR
  2
AcDbDictionaryVar
  3
ObjectDBX Classes
 90
        0
280
     0
281
     0
  0
CLASS
  1
TABLESTYLE
  2
AcDbTableStyle
  3
ObjectDBX Classes
 90
     4095
280
     0
281
     0
  0
CLASS
  1
SORTENTSTABLE
  2
AcDbSortentsTable
  3
ObjectDBX Classes
 90
        0
280
     0
281
     0
  0
CLASS
  1
MATERIAL
  2
AcDbMaterial
  3
ObjectDBX Classes
 90
     1153
280
     0
281
     0
  0
CLASS
  1
VISUALSTYLE
  2
AcDbVisualStyle
  3
ObjectDBX Classes
 90
     4095
280
     0
281
     0
  0
CLASS
  1
SCALE
  2
AcDbScale
  3
ObjectDBX Classes
 90
     1153
280
     0
281
     0
  0
CLASS
  1
MLEADERSTYLE
  2
AcDbMLeaderStyle
  3
ACDB_MLEADERSTYLE_CLASS
 90
     4095
280
     0
281
     0
  0
CLASS
  1
CELLSTYLEMAP
  2
AcDbCellStyleMap
  3
ObjectDBX Classes
 90
     1152
280
     0
281
     0
  0
ENDSEC
  0
SECTION
  2
TABLES
  0
TABLE
  2
VPORT
  5
8
330
0
100
AcDbSymbolTable
 70
     1
  0
VPORT
  5
88B
330
8
100
AcDbSymbolTableRecord
100
AcDbViewportTableRecord
  2
*Active
 70
     0
 10
0.0
 20
0.0
 11
1.0
 21
1.0
 12
2.835023460113795
 22
-3.031988714275337
 13
0.0
 23
0.0
 14
0.5
 24
0.5
 15
0.5
 25
0.5
 16
0.0
 26
-1.0
 36
0.0
 17
8.242433035088232
 27
0.9926554219722463
 37
4.28198871427533
 40
2.520491803278673
 41
1.952107279693486
 42
50.0
 43
0.0
 44
0.0
 50
0.0
 51
0.0
 71
     0
 72
   100
 73
     1
 74
     3
 75
     0
 76
     0
 77
     0
 78
     0
281
     0
 65
     1
110
0.0
120
0.0
130
0.0
111
1.0
121
0.0
131
0.0
112
0.0
122
0.0
132
1.0
 79
     0
146
0.0
  0
ENDTAB
  0
TABLE
  2
LTYPE
  5
5
330
0
100
AcDbSymbolTable
 70
     1
  0
LTYPE
  5
14
330
5
100
AcDbSymbolTableRecord
100
AcDbLinetypeTableRecord
  2
ByBlock
 70
     0
  3

 72
    65
 73
     0
 40
0.0
  0
LTYPE
  5
15
330
5
100
AcDbSymbolTableRecord
100
AcDbLinetypeTableRecord
  2
ByLayer
 70
     0
  3

 72
    65
 73
     0
 40
0.0
  0
LTYPE
  5
16
330
5
100
AcDbSymbolTableRecord
100
AcDbLinetypeTableRecord
  2
Continuous
 70
     0
  3
Solid line
 72
    65
 73
     0
 40
0.0
  0
ENDTAB
  0
TABLE
  2
LAYER
  5
2
330
0
100
AcDbSymbolTable
 70
     5
  0
LAYER
  5
10
102
{ACAD_XDICTIONARY
360
D51
102
}
330
2
100
AcDbSymbolTableRecord
100
AcDbLayerTableRecord
  2
0
 70
     0
 62
     7
  6
Continuous
370
    -3
390
F
  0
LAYER
  5
D2
102
{ACAD_XDICTIONARY
360
D53
102
}
330
2
100
AcDbSymbolTableRecord
100
AcDbLayerTableRecord
  2
Layer1
 70
     0
 62
     1
  6
Continuous
370
    -3
390
F
  0
LAYER
  5
5D4
330
2
100
AcDbSymbolTableRecord
100
AcDbLayerTableRecord
  2
Defpoints
 70
     0
 62
     7
  6
Continuous
290
     0
370
    -3
390
F
  0
LAYER
  5
798
102
{ACAD_XDICTIONARY
360
D55
102
}
330
2
100
AcDbSymbolTableRecord
100
AcDbLayerTableRecord
  2
HOLES
 70
     0
 62
     7
  6
Continuous
370
    -3
390
F
  0
LAYER
  5
8F6
102
{ACAD_XDICTIONARY
360
D57
102
}
330
2
100
AcDbSymbolTableRecord
100
AcDbLayerTableRecord
  2
ASHADE
 70
     4
 62
     7
  6
Continuous
370
    -3
390
F
  0
ENDTAB
  0
TABLE
  2
STYLE
  5
3
330
0
100
AcDbSymbolTable
 70
     2
  0
STYLE
  5
11
330
3
100
AcDbSymbolTableRecord
100
AcDbTextStyleTableRecord
  2
Standard
 70
     0
 40
0.0
 41
1.0
 50
0.0
 71
     0
 42
0.2
  3
txt
  4

  0
STYLE
  5
8F0
330
3
100
AcDbSymbolTableRecord
100
AcDbTextStyleTableRecord
  2
ASHADE
 70
     0
 40
0.2
 41
1.0
 50
0.0
 71
     0
 42
0.2
  3
simplex
  4

  0
ENDTAB
  0
TABLE
  2
VIEW
  5
6
330
0
100
AcDbSymbolTable
 70
     0
  0
ENDTAB
  0
TABLE
  2
UCS
  5
7
330
0
100
AcDbSymbolTable
 70
     0
  0
ENDTAB
  0
TABLE
  2
APPID
  5
9
330
0
100
AcDbSymbolTable
 70
     7
  0
APPID
  5
12
330
9
100
AcDbSymbolTableRecord
100
AcDbRegAppTableRecord
  2
ACAD
 70
     0
  0
APPID
  5
8ED
330
9
100
AcDbSymbolTableRecord
100
AcDbRegAppTableRecord
  2
ACAD_MLEADERVER
 70
     0
  0
APPID
  5
8F1
330
9
100
AcDbSymbolTableRecord
100
AcDbRegAppTableRecord
  2
AVE_RENDER
 70
     0
  0
APPID
  5
8F2
330
9
100
AcDbSymbolTableRecord
100
AcDbRegAppTableRecord
  2
AVE_ENTITY_MATERIAL
 70
     0
  0
APPID
  5
8F3
330
9
100
AcDbSymbolTableRecord
100
AcDbRegAppTableRecord
  2
AVE_FINISH
 70
     0
  0
APPID
  5
8F4
330
9
100
AcDbSymbolTableRecord
100
AcDbRegAppTableRecord
  2
AVE_MATERIAL
 70
     0
  0
APPID
  5
8F5
330
9
100
AcDbSymbolTableRecord
100
AcDbRegAppTableRecord
  2
AVE_GLOBAL
 70
     0
  0
ENDTAB
  0
TABLE
  2
DIMSTYLE
  5
A
330
0
100
AcDbSymbolTable
 70
     3
100
AcDbDimStyleTable
 71
     0
  0
DIMSTYLE
105
27
330
A
100
AcDbSymbolTableRecord
100
AcDbDimStyleTableRecord
  2
Standard
 70
     0
340
11
  0
DIMSTYLE
105
243
330
A
100
AcDbSymbolTableRecord
100
AcDbDimStyleTableRecord
  2
Copy of Standard
 70
     0
277
     4
340
11
342
23F
  0
DIMSTYLE
105
799
330
A
100
AcDbSymbolTableRecord
100
AcDbDimStyleTableRecord
  2
COPY_OF_STANDARD
 70
     0
279
     2
340
11
  0
ENDTAB
  0
TABLE
  2
BLOCK_RECORD
  5
1
330
0
100
AcDbSymbolTable
 70
    13
  0
BLOCK_RECORD
  5
1F
330
1
100
AcDbSymbolTableRecord
100
AcDbBlockTableRecord
  2
*Model_Space
340
22
  0
BLOCK_RECORD
  5
1B
330
1
100
AcDbSymbolTableRecord
100
AcDbBlockTableRecord
  2
*Paper_Space
340
1E
  0
BLOCK_RECORD
  5
23
330
1
100
AcDbSymbolTableRecord
100
AcDbBlockTableRecord
  2
*Paper_Space0
340
26
  0
BLOCK_RECORD
  5
89
330
1
100
AcDbSymbolTableRecord
100
AcDbBlockTableRecord
  2
A$C402506B2
340
0
  0
BLOCK_RECORD
  5
23F
330
1
100
AcDbSymbolTableRecord
100
AcDbBlockTableRecord
  2
_ArchTick
340
0
  0
BLOCK_RECORD
  5
332
330
1
100
AcDbSymbolTableRecord
100
AcDbBlockTableRecord
  2
A$C62876B25
340
0
  0
BLOCK_RECORD
  5
376
330
1
100
AcDbSymbolTableRecord
100
AcDbBlockTableRecord
  2
A$C0CF7183B
340
0
  0
BLOCK_RECORD
  5
4B2
330
1
100
AcDbSymbolTableRecord
100
AcDbBlockTableRecord
  2
A$C371D6E50
340
0
  0
BLOCK_RECORD
  5
562
330
1
100
AcDbSymbolTableRecord
100
AcDbBlockTableRecord
  2
A$C69274768
340
0
  0
BLOCK_RECORD
  5
59A
330
1
100
AcDbSymbolTableRecord
100
AcDbBlockTableRecord
  2
A$C3BD243A1
340
0
  0
BLOCK_RECORD
  5
7FA
102
{ACAD_XDICTIONARY
360
80B
102
}
330
1
100
AcDbSymbolTableRecord
100
AcDbBlockTableRecord
  2
A$C6CF0041D
340
0
1001
ACAD
1000
DesignCenter Data
1002
{
1070
     1
1070
     1
1002
}
  0
BLOCK_RECORD
  5
8F7
330
1
100
AcDbSymbolTableRecord
100
AcDbBlockTableRecord
  2
AVE_GLOBAL
340
0
102
{BLKREFS
331
8FA
102
}
  0
BLOCK_RECORD
  5
900
330
1
100
AcDbSymbolTableRecord
100
AcDbBlockTableRecord
  2
AVE_RENDER
340
0
102
{BLKREFS
331
903
331
904
331
905
331
906
331
907
331
908
331
909
331
90A
102
}
  0
BLOCK_RECORD
  5
D16
330
1
100
AcDbSymbolTableRecord
100
AcDbBlockTableRecord
  2
RM_SDB
340
0
102
{BLKREFS
331
1177
331
1599
102
}
  0
ENDTAB
  0
ENDSEC
  0
SECTION
  2
BLOCKS
  0
BLOCK
  5
20
330
1F
100
AcDbEntity
  8
0
100
AcDbBlockBegin
  2
*Model_Space
 70
     0
 10
0.0
 20
0.0
 30
0.0
  3
*Model_Space
  1

  0
ENDBLK
  5
21
330
1F
100
AcDbEntity
  8
0
100
AcDbBlockEnd
  0
BLOCK
  5
1C
330
1B
100
AcDbEntity
 67
     1
  8
0
100
AcDbBlockBegin
  2
*Paper_Space
 70
     0
 10
0.0
 20
0.0
 30
0.0
  3
*Paper_Space
  1

  0
ENDBLK
  5
1D
330
1B
100
AcDbEntity
 67
     1
  8
0
100
AcDbBlockEnd
  0
BLOCK
  5
24
330
23
100
AcDbEntity
 67
     1
  8
0
100
AcDbBlockBegin
  2
*Paper_Space0
 70
     0
 10
0.0
 20
0.0
 30
0.0
  3
*Paper_Space0
  1

  0
ENDBLK
  5
25
330
23
100
AcDbEntity
 67
     1
  8
0
100
AcDbBlockEnd
  0
BLOCK
  5
8B
330
89
100
AcDbEntity
  8
0
100
AcDbBlockBegin
  2
A$C402506B2
 70
     0
 10
0.0
 20
0.0
 30
0.0
  3
A$C402506B2
  1

  0
LINE
  5
8A
330
89
100
AcDbEntity
  8
0
100
AcDbLine
 10
1.99999997599076
 20
-0.0000000065864836
 30
0.0
 11
-0.000000024009239
 21
-0.0000000065864836
 31
0.0
  0
ENDBLK
  5
8C
330
89
100
AcDbEntity
  8
0
100
AcDbBlockEnd
  0
BLOCK
  5
241
330
23F
100
AcDbEntity
  8
0
100
AcDbBlockBegin
  2
_ArchTick
 70
     0
 10
0.0
 20
0.0
 30
0.0
  3
_ArchTick
  1

  0
LWPOLYLINE
  5
240
330
23F
100
AcDbEntity
  8
0
 62
     0
100
AcDbPolyline
 90
        2
 70
     0
 43
0.15
 10
-0.5
 20
-0.5
 10
0.5
 20
0.5
  0
ENDBLK
  5
242
330
23F
100
AcDbEntity
  8
0
100
AcDbBlockEnd
  0
BLOCK
  5
335
330
332
100
AcDbEntity
  8
0
100
AcDbBlockBegin
  2
A$C62876B25
 70
     0
 10
0.0
 20
0.0
 30
0.0
  3
A$C62876B25
  1

  0
ARC
  5
333
330
332
100
AcDbEntity
  8
0
100
AcDbCircle
 10
4.747076104803912
 20
-0.0146308894255172
 30
0.0
 40
5.365388799403604
100
AcDbArc
 50
18.5020939616608
 51
32.26026640746432
  0
LINE
  5
334
330
332
100
AcDbEntity
  8
0
100
AcDbLine
 10
0.0000000123864794
 20
0.0000000105636286
 30
0.0
 11
0.0000000123864794
 21
2.849231481021627
 31
0.0
  0
ENDBLK
  5
336
330
332
100
AcDbEntity
  8
0
100
AcDbBlockEnd
  0
BLOCK
  5
378
330
376
100
AcDbEntity
  8
0
100
AcDbBlockBegin
  2
A$C0CF7183B
 70
     0
 10
0.0
 20
0.0
 30
0.0
  3
A$C0CF7183B
  1

  0
ARC
  5
377
330
376
100
AcDbEntity
  8
0
100
AcDbCircle
 10
-4.537145498590048
 20
-1.10838087746436
 30
0.0
 40
5.365388799403604
100
AcDbArc
 50
11.92199408310056
 51
32.26026640746435
  0
ENDBLK
  5
379
330
376
100
AcDbEntity
  8
0
100
AcDbBlockEnd
  0
BLOCK
  5
4B4
330
4B2
100
AcDbEntity
  8
0
100
AcDbBlockBegin
  2
A$C371D6E50
 70
     0
 10
0.0
 20
0.0
 30
0.0
  3
A$C371D6E50
  1

  0
LINE
  5
4B3
330
4B2
100
AcDbEntity
  8
0
100
AcDbLine
 10
0.0
 20
0.0
 30
0.0
 11
0.0
 21
0.2187794715102882
 31
0.0
  0
ENDBLK
  5
4B5
330
4B2
100
AcDbEntity
  8
0
100
AcDbBlockEnd
  0
BLOCK
  5
564
330
562
100
AcDbEntity
  8
0
100
AcDbBlockBegin
  2
A$C69274768
 70
     0
 10
0.0
 20
0.0
 30
0.0
  3
A$C69274768
  1

  0
ARC
  5
563
330
562
100
AcDbEntity
  8
0
100
AcDbCircle
 10
-0.5175933990904609
 20
-0.2777095236602315
 30
0.0
 40
0.731212470009667
100
AcDbArc
 50
22.32087359577163
 51
44.93923083705086
  0
ENDBLK
  5
565
330
562
100
AcDbEntity
  8
0
100
AcDbBlockEnd
  0
BLOCK
  5
59C
330
59A
100
AcDbEntity
  8
0
100
AcDbBlockBegin
  2
A$C3BD243A1
 70
     0
 10
0.0
 20
0.0
 30
0.0
  3
A$C3BD243A1
  1

  0
3DSOLID
  5
59B
330
59A
100
AcDbEntity
  8
0
100
AcDbModelerGeometry
 70
     1
  1
koo lik n o         
  1
ni ^ *+0;:,4 ^ *+0\^ [ nh ^ LR nmqoqnqgmo QK o  
  1
mjqlffffffffffffff fqfffffffffffffffj:rooh n:rono 
  1
=0;& {rn {n {rn {rn |
  1
3*2/ {rn {rn {m {o |
  1
,7:33 {rn {rn {rn {l {rn {n |
  1
9><: {rn {k {j {m {rn {i 90-(>-; ,6183: |
  1
9><: {rn {h {g {m {rn {i 90-(>-; ,6183: |
  1
300/ {rn {rn {f {l |
  1
/3>1:r,*-9><: {rn rnqmkfhhhnhoikmnnf:roog rlqlfgofiomihgjkmkl:roof rfqmkllfmologhjhgli:roog rn o o o n o 90-(>-;@) V V V V |
  1
9><: {rn {no {nn {m {rn {nm -:):-,:; ,6183: |
  1
300/ {rn {rn {nl {k |
  1
<0:;8: {rn {nk {nj {ni {nh 90-(>-; {j {rn |
  1
9><: {rn {ng {nf {m {rn {nm -:):-,:; ,6183: |
  1
300/ {rn {rn {mo {h |
  1
/3>1:r,*-9><: {rn nqhkfffffghjommmgl rlqlfgofiomihgjkmkl:roof rmoqjoooooofmkllfng o n o o o rn 90-(>-;@) V V V V |
  1
<0:;8: {rn {mn {mm {ml {mk 90-(>-; {g {rn |
  1
<0:;8: {rn {mj {f {mi {mh -:):-,:; {j {rn |
  1
<0:;8: {rn {f {mj {mg {mf 90-(>-; {j {rn |
  1
<0:;8: {rn {lo {ln {f {nh -:):-,:; {lm {rn |
  1
:;8: {rn {ll {lk {ni {lj 90-(>-; |
  1
9><: {rn {li {lh {m {rn {lg 90-(>-; ,6183: |
  1
300/ {rn {rn {lf {no |
  1
<0:;8: {rn {ko {mi {ln {kn 90-(>-; {nn {rn |
  1
<0:;8: {rn {km {nl {kl {kk -:):-,:; {g {rn |
  1
<0:;8: {rn {nl {km {kj {ki 90-(>-; {g {rn |
  1
<0:;8: {rn {kh {kg {nl {mk -:):-,:; {kf {rn |
  1
:;8: {rn {jo {jn {ml {jm 90-(>-; |
  1
<0:;8: {rn {nj {nk {jl {jk 90-(>-; {j {rn |
  1
<0:;8: {rn {mo {jj {nk {mh 90-(>-; {nn {rn |
  1
:;8: {rn {ji {lk {nk {jh 90-(>-; |
  1
<0:;8: {rn {jg {jf {nj {mf -:):-,:; {lh {rn |
  1
:;8: {rn {io {ll {nj {in 90-(>-; |
  1
<0:;8: {rn {im {ni {jf {il -:):-,:; {lm {rn |
  1
<0:;8: {rn {ni {im {mo {kn -:):-,:; {lm {rn |
  1
300/ {rn {rn {im {ik |
  1
):-+:' {rn {nh {ij |
  1
):-+:' {rn {nh {ii |
  1
:336/,:r<*-): {rn rnqmkfhhhnhoikmnnf:roog nqhkffffffiionfok rlkqmhimhigkfklkmk rn o o o rlqilkfnfofifnlnkll o n V V |
  1
9><: {rn {ih {ig {m {rn {if 90-(>-; ,6183: |
  1
300/ {rn {rn {jf {ng |
  1
/3>1:r,*-9><: {rn lqkffffffghjommmgl lqkfffffffiionfok rfqmkllfmoofkkjnhmk:roog o n o o o rn 90-(>-;@) V V V V |
  1
<0:;8: {rn {ho {kl {kg {hn 90-(>-; {nf {rn |
  1
<0:;8: {rn {jj {mo {hm {hl 90-(>-; {nn {rn |
  1
:;8: {rn {lk {hk {ln {hj 90-(>-; |
  1
<0:;8: {rn {mm {mn {hi {hh 90-(>-; {g {rn |
  1
<0:;8: {rn {lf {hg {mn {kk 90-(>-; {nf {rn |
  1
:;8: {rn {hf {jn {mn {jh 90-(>-; |
  1
<0:;8: {rn {go {gn {mm {ki -:):-,:; {gm {rn |
  1
:;8: {rn {gl {jo {mm {in 90-(>-; |
  1
<0:;8: {rn {gk {ml {gn {gj -:):-,:; {kf {rn |
  1
<0:;8: {rn {ml {gk {lf {hn -:):-,:; {kf {rn |
  1
300/ {rn {rn {gk {gi |
  1
):-+:' {rn {mk {gh |
  1
):-+:' {rn {mk {gg |
  1
:336/,:r<*-): {rn rnqmkfhhhnhoikmnnf:roog nqhkffffffiionfok riqlnjlofjgnhjolfhm rn o o o rlqilkfnfomffnngmhm o n V V |
  1
<0:;8: {rn {gf {fo {mj {jk -:):-,:; {fn {rn |
  1
:;8: {rn {ji {io {jl {fm 90-(>-; |
  1
<0:;8: {rn {mi {ko {gf {fl 90-(>-; {nn {rn |
  1
):-+:' {rn {jk {fk |
  1
,+->687+r<*-): {rn rnqmkfhhhnhoikmnnf:roog rlqlfgofiomihgjkmkl:roof rfqmkllfmologhjhgli:roog o o rn V V |
  1
<0:;8: {rn {fj {mg {fo {fi 90-(>-; {lh {rn |
  1
<0:;8: {rn {mg {fj {lo {il 90-(>-; {lh {rn |
  1
):-+:' {rn {jk {fh |
  1
,+->687+r<*-): {rn rnqmkfhhhnhoikmnnf:roog lqkfffffffiionfok rfqmkllfmologhjhgli:roog o o rn V V |
  1
<0:;8: {rn {ln {lo {fg {ff -:):-,:; {lm {rn |
  1
:;8: {rn {noo {ll {lo {non 90-(>-; |
  1
9><: {rn {nom {nol {m {rn {nok 90-(>-; ,6183: |
  1
/061+ {rn rnqmkfhhhnhoikmnnf:roog lqkfffffffiionfok rlhqkimmokhgfhgkkog |
  1
/061+ {rn rnqmkfhhhnhoikmnnf:roog rlqlfgofiomihgjkmkl:roof rlhqkimmokhgfhgkkog |
  1
9><: {rn {noj {noi {m {rn {if 90-(>-; ,6183: |
  1
300/ {rn {rn {fg {li |
  1
/3>1:r,*-9><: {rn lqkffffffghjommmgl rlqlfgofiomihgjkmkl:roof rknqooooooofmkllfnj n o o o rn o 90-(>-;@) V V V V |
  1
<0:;8: {rn {hg {lf {noh {nog 90-(>-; {nf {rn |
  1
:;8: {rn {jn {nof {kg {nno 90-(>-; |
  1
<0:;8: {rn {fg {nnn {ko {hl -:):-,:; {ig {rn |
  1
:;8: {rn {hk {nnm {hm {nnl 90-(>-; |
  1
):-+:' {rn {ff {nnk |
  1
:336/,:r<*-): {rn nqhkffffflhgmimjkh rlqlfgofiomihgjkmkl:roof rlkqmhimhigkfklkmk o rn o lqilkfnfohmffhogok o o n V V |
  1
<0:;8: {rn {nnj {nni {km {hh -:):-,:; {nnh {rn |
  1
:;8: {rn {hf {gl {hi {nng 90-(>-; |
  1
<0:;8: {rn {kl {ho {nnj {nnf 90-(>-; {nf {rn |
  1
):-+:' {rn {hh {nmo |
  1
<0:;8: {rn {nmn {kj {nni {nmm 90-(>-; {gm {rn |
  1
<0:;8: {rn {kj {nmn {kh {gj 90-(>-; {gm {rn |
  1
300/ {rn {rn {gn {noj |
  1
):-+:' {rn {hh {nml |
  1
<0:;8: {rn {kg {kh {nmk {nmj -:):-,:; {kf {rn |
  1
:;8: {rn {nmi {jo {kh {nmh 90-(>-; |
  1
9><: {rn {nmg {nmf {m {rn {nlo 90-(>-; ,6183: |
  1
/061+ {rn rnqmkfhhhnhoikmnnf:roog lqkfffffffiionfok rfqjonmlhkkjijihghi |
  1
/061+ {rn rnqmkfhhhnhoikmnnf:roog rlqlfgofiomihgjkmkl:roof rfqjonmlhkkjijihghi |
  1
<0:;8: {rn {nln {jl {jj {fl -:):-,:; {fn {rn |
  1
<0:;8: {rn {jl {nln {jg {fi -:):-,:; {fn {rn |
  1
300/ {rn {rn {nln {nom |
  1
:336/,:r<*-): {rn rnqmkfhhhnhoikmnnf:roog nqhkffffffiionfok rliqogmmoihkgkmnmoh rn o o o rlqjhfmkonmhigofgof o n V V |
  1
:;8: {rn {nnm {ji {gf {nlm 90-(>-; |
  1
/061+ {rn rnqmkfhhhnhoikmnnf:roog rlqlfgofiomihgjkmkl:roof rlmqfjffjklhlihiojj |
  1
<0:;8: {rn {jf {jg {nll {nlk -:):-,:; {lh {rn |
  1
:;8: {rn {io {nlj {fo {nli 90-(>-; |
  1
/061+ {rn rnqmkfhhhnhoikmnnf:roog lqkfffffffiionfok rlmqfjffjklhlihiojj |
  1
<0:;8: {rn {nll {hm {im {ff 90-(>-; {ig {rn |
  1
:;8: {rn {hk {noo {im {nlh 90-(>-; |
  1
):-+:' {rn {ff {nlg |
  1
:336/,:r<*-): {rn nqhkffffflhgmimjkh lqkfffffffiionfok rlkqmhimhigkfklkmk o n o rlqilkfnfohmffhogok o o n V V |
  1
9><: {rn {nlf {nko {m {rn {nkn 90-(>-; ,6183: |
  1
300/ {rn {lm {nkm {ik |
  1
,/7:-:r,*-9><: {rn nqhkffffflhgmimjkh nqhkffffffiionfok rlkqmhimhigkfklkmk kqolkmkjkgfmnllnnf o o rn o n o 90-(>-;@) V V V V |
  1
9><: {rn {gi {gm {m {rn {lg 90-(>-; ,6183: |
  1
300/ {rn {rn {nmk {ih |
  1
<0:;8: {rn {nmk {nkl {ho {nog -:):-,:; {noi {rn |
  1
:;8: {rn {nof {nkk {noh {nnl 90-(>-; |
  1
):-+:' {rn {nmj {nkj |
  1
:336/,:r<*-): {rn nqhjooooooiihklj rlqlfgofiomihgjkmkl:roof riqlnjlofjgnhjolfhm o rn o lqilkfnfolfnkmohhi o o n V V |
  1
<0:;8: {rn {hm {nll {nln {nki 90-(>-; {ig {rn |
  1
):-+:' {rn {nki {nkh |
  1
,+->687+r<*-): {rn lqkffffffghjommmgl rlqlfgofiomihgjkmkl:roof rknqooooooofmkllfnj o o n V V |
  1
/061+ {rn lqkffffffghjommmgl rlqlfgofiomihgjkmkl:roof rlhqkimmokhljmnnlml |
  1
<0:;8: {rn {nkg {hi {hg {nnf -:):-,:; {nnh {rn |
  1
<0:;8: {rn {hi {nkg {go {nmm -:):-,:; {nnh {rn |
  1
300/ {rn {rn {nkg {nmg |
  1
,+->687+r<*-): {rn rnqmkfhhhnhoikmnnf:roog oqghkfffffiionfolfh rfqmkllfmojolnifgln:roog o n o V V |
  1
:;8: {rn {nkk {hf {nnj {nkf 90-(>-; |
  1
/061+ {rn rnqmkfhhhnhoikmnnf:roog rlqlfgofiomihgjkmkl:roof rfqmkllfmologhjhgli:roog |
  1
<0:;8: {rn {gn {go {njo {njn -:):-,:; {gm {rn |
  1
:;8: {rn {gl {njm {nni {njl 90-(>-; |
  1
/061+ {rn rnqmkfhhhnhoikmnnf:roog lqkfffffffiionfok rfqmkllfmologhjhgli:roog |
  1
<0:;8: {rn {njo {noh {gk {nmj 90-(>-; {noi {rn |
  1
:;8: {rn {nof {nmi {gk {njk 90-(>-; |
  1
):-+:' {rn {nmj {njj |
  1
:336/,:r<*-): {rn nqhjooooooiihklj lqkfffffffiionfok riqlnjlofjgnhjolfhm o n o rlqilkfnfolfnkmohhi o o n V V |
  1
9><: {rn {ik {nnh {m {rn {nji 90-(>-; ,6183: |
  1
300/ {rn {kf {njh {gi |
  1
,/7:-:r,*-9><: {rn nqhjooooooiihklj nqhkffffffiionfok riqlnjlofjgnhjolfhm kqolkmkjkjghofkngl o o rn o n o 90-(>-;@) V V V V |
  1
<0:;8: {rn {fo {gf {nnn {nki -:):-,:; {fn {rn |
  1
:336/,:r<*-): {rn nqhkffffflhgmimjkh rlqlfgofiomihgjkmkl:roof rliqogmmoihkgkmnmoh o rn o lqjhfmkonollfmghhg o o n V V |
  1
<0:;8: {rn {nnn {fg {fj {nlk 90-(>-; {ig {rn |
  1
:;8: {rn {noo {nlj {nll {njg 90-(>-; |
  1
):-+:' {rn {nki {njf |
  1
:336/,:r<*-): {rn nqhkffffflhgmimjkh lqkfffffffiionfok rliqogmmoihkgkmnmoh o n o rlqjhfmkonollfmghhg o o n V V |
  1
:336/,:r<*-): {rn lqkffffffghjommmgl nqhkffffffiionfok rlkqmhimhigkfklkmk n o o o lqilkfnfokfognonh o n V V |
  1
/061+ {rn lqkffffffghjommmgl lqkfffffffiionfok rlhqkimmokhljmnnlml |
  1
9><: {rn {nio {nin {m {rn {nim 90-(>-; ,6183: |
  1
300/ {rn {fn {nil {nom |
  1
,/7:-:r,*-9><: {rn nqhkffffflhgmimjkh nqhkffffffiionfok rliqogmmoihkgkmnmoh lqfgknjnoiinmgghjf o o rn o n o 90-(>-;@) V V V V |
  1
<0:;8: {rn {nkm {nkm {nik {nij 90-(>-; {nol {rn |
  1
<0:;8: {rn {noh {njo {nkg {nii 90-(>-; {noi {rn |
  1
):-+:' {rn {nii {nih |
  1
/061+ {rn lqkffffffghjommmgl rlqlfgofiomihgjkmkl:roof rfqjonmlhkiihngfnhk |
  1
:;8: {rn {nlj {nnm {nln {nig 90-(>-; |
  1
/061+ {rn lqkffffffghjommmgl rlqlfgofiomihgjkmkl:roof rlmqfjffjkkmflimnoh |
  1
<0:;8: {rn {nni {nnj {nkl {nii -:):-,:; {nnh {rn |
  1
,+->687+r<*-): {rn nqolhkjlmlimknolhi rlqlfgofiomihgjkmkl:roof rfqmkllfmoohlilnmh:roog rn o rnqmmkioiljlgmmlhhl:roni V V |
  1
<0:;8: {rn {nkl {nmk {nmn {njn 90-(>-; {noi {rn |
  1
:;8: {rn {nmi {njm {njo {njg 90-(>-; |
  1
):-+:' {rn {nii {nif |
  1
,+->687+r<*-): {rn nqfnmkjlmlimknolgj lqkfffffffiionfok rfqmkllfmomigfifjgg:roog n o nqmmkioiljlgmmlhhl:roni V V |
  1
:336/,:r<*-): {rn lqkffffffghjommmgl nqhkffffffiionfok riqlnjlofjgnhjolfhm n o o o lqilkfnfokglhmlmhf o n V V |
  1
/061+ {rn lqkffffffghjommmgl lqkfffffffiionfok rfqjonmlhkiihngfnhk |
  1
/3>1:r,*-9><: {rn oqlmkfoikgkfhfgkfjl nqhkffffffiionfok rfqmkllfmokillgnjh:roog rnqmmkioiljlgmmlhhl:roni o n o n o 90-(>-;@) V V V V |
  1
<0:;8: {rn {njh {njh {nho {nhn 90-(>-; {nmf {rn |
  1
,+->687+r<*-): {rn lqkffffffghjommmgl lqkfffffffiionfok rknqooooooofmkllfnj o o n V V |
  1
/061+ {rn lqkffffffghjommmgl lqkfffffffiionfok rlmqfjffjkkmflimnoh |
  1
9><: {rn {nhm {nhl {m {rn {nhk 90-(>-; ,6183: |
  1
300/ {rn {nhj {nhi {nlf |
  1
<01:r,*-9><: {rn nqhkfffffghjommmfm nqhkffffffiionfok rnnqhhoikoiifffmnih rnqmmkioiljlgmmlhhl:roni o n rnqkgjgkmnjijkilgkk o hqgfnmfkoogjnhojmf:roni n V V oqgfnkiinfigfngmffl oqkjloghmoffmihinkk nqkgjgkmnjijkilgkk 90-(>-; V V V V |
  1
<0:;8: {rn {nil {nil {nhh {nhg -:):-,:; {nko {rn |
  1
<0:;8: {rn {nik {nik {nkm {nij -:):-,:; {nhf {rn |
  1
:;8: {rn {ngo {ngo {nkm {ngn 90-(>-; |
  1
:;8: {rn {njm {nkk {nkg {ngm 90-(>-; |
  1
/061+ {rn lqkffffffghjommmgl rlqlfgofiomihgjkmkl:roof rfqmkllfmoofkkjnhmk:roog |
  1
:336/,:r<*-): {rn lqkffffffghjommmgl nqhkffffffiionfok rliqogmmoihkgkmnmoh n o o o lqjhfmkoohfnokhhlg o n V V |
  1
/061+ {rn lqkffffffghjommmgl lqkfffffffiionfok rfqmkllfmoofkkjnhmk:roog |
  1
<0:;8: {rn {nho {nho {njh {nhn -:):-,:; {ngl {rn |
  1
:;8: {rn {ngk {ngk {njh {ngj 90-(>-; |
  1
9><: {rn {ngi {ngh {m {rn {ngg 90-(>-; ,6183: |
  1
300/ {rn {ngf {nfo {nio |
  1
+0-*,r,*-9><: {rn nqhkfffffghjommmfm nqhkffffffiionfok rnnqjimikkolllnflgl rnqmmkioiljlgmmlhhl:roni o n nqjnimhloglkjmgkkg oqnhnihfhhkokhnjmki o n o 90-(>-;@) V V V V |
  1
300/ {rn {rn {nfn {nlf |
  1
<0:;8: {rn {nhi {nhi {nfm {nfl -:):-,:; {nin {rn |
  1
<0:;8: {rn {nhh {nhh {nil {nhg 90-(>-; {nfk {rn |
  1
:;8: {rn {nfj {nfj {nhh {nfi 90-(>-; |
  1
300/ {rn {nfh {nik {nfg |
  1
):-+:' {rn {nij {nff |
  1
:336/,:r<*-): {rn nqhkfffffghjommlmh nqhkffffffiionfok rlgqnjflklmfjhhminj rnqmmkioiljlgmmlhhl:roni o n rnqofkokljhholnikfj o jqgnokjjlinmjighhn:roni n V V |
  1
,+->687+r<*-): {rn lqkffffffghjommmhg oqghkfffffiionfolfh rfqmkllfmngkffggnn:roog o rn o V V |
  1
300/ {rn {moo {nho {mon |
  1
):-+:' {rn {nhn {mom |
  1
:336/,:r<*-): {rn nqhkfffffghjommmfm nqhkffffffiionfok rnoqommhfnoiglniojl rnqmmkioiljlgmmlhhl:roni o n rnqjfojogkgmmgmgoig o gqkkhnhjfoojojjglg:roni n V V |
  1
9><: {rn {mol {mok {m {rn {moj 90-(>-; ,6183: |
  1
300/ {rn {moi {moh {nhm |
  1
+0-*,r,*-9><: {rn nqhkfffffghjommmfm nqhkffffffiionfok rnnqlflnhghllkihnij rnqmmkioiljlgmmlhhl:roni o n nqiojfijhkijikknok roqomnlohmoiiinnmkkji o n o 90-(>-;@) V V V V |
  1
300/ {rn {rn {nfm {nio |
  1
<0:;8: {rn {nfo {nfo {mog {mof -:):-,:; {nhl {rn |
  1
<0:;8: {rn {nfn {nfn {mno {mnn 90-(>-; {nhj {rn |
  1
<0:;8: {rn {nfm {nfm {nhi {nfl 90-(>-; {ngf {rn |
  1
:;8: {rn {mnm {mnm {nfm {mnl 90-(>-; |
  1
300/ {rn {rn {nhh {mnk |
  1
):-+:' {rn {nhg {mnj |
  1
:336/,:r<*-): {rn nqhkfffffghjommlng nqhkffffffiionfok rlmqliijhniffkffkih rnqmmkioiljlgmmlhhl:roni o n rnqklhggjgmjhgnij o hqilijfglhhjnmginm:roni n V V |
  1
300/ {rn {rn {mni {nfg |
  1
9><: {rn {mnk {nhf {m {rn {mnh 90-(>-; ,6183: |
  1
/061+ {rn oqijjfjiknokhojgljn nqhkffffffiionfok rlgqnjflklmfjhhminj |
  1
300/ {rn {rn {mng {mon |
  1
9><: {rn {mnf {ngl {m {rn {mmo 90-(>-; ,6183: |
  1
/061+ {rn oqnjfkfnjojmnfkmmhf nqhkffffffiionfok rnoqommhfnoiglniojl |
  1
9><: {rn {mmn {mmm {m {rn {mml 90-(>-; ,6183: |
  1
300/ {rn {mmk {mmj {ngi |
  1
+0-*,r,*-9><: {rn nqhkfffffghjommmfm nqhkffffffiionfok rnnqojkmkgnllhimhmg rnqmmkioiljlgmmlhhl:roni o n nqoffhomlnhkhjjnml oqjggmjojkoomkkgjng o n o 90-(>-;@) V V V V |
  1
300/ {rn {rn {mog {nhm |
  1
<0:;8: {rn {moh {moh {mmi {mmh -:):-,:; {ngh {rn |
  1
<0:;8: {rn {mog {mog {nfo {mof 90-(>-; {moi {rn |
  1
:;8: {rn {mmg {mmg {mog {mmf 90-(>-; |
  1
<0:;8: {rn {mlo {mln {nfn {mnn -:):-,:; {mlm {mll |
  1
:;8: {rn {mlk {mlk {nfn {mlj 90-(>-; |
  1
):-+:' {rn {nfl {mli |
  1
:336/,:r<*-): {rn nqhkfffffghjommmfm nqhkffffffiionfok rnnqhnhkkkoiiglgmll rnqmmkioiljlgmmlhhl:roni o n rnqjfojogkgmmgmgoig o gqkkhnhjfoojojjglg:roni n V V |
  1
9><: {rn {mlh {mlg {m {rn {mlf 90-(>-; ,6183: |
  1
/061+ {rn oqlnmnnkninhmojgmok nqhkffffffiionfok rlmqliijhniffkffkih |
  1
<0:;8: {rn {mni {mni {mko {mkn 90-(>-; {nfh {rn |
  1
+0-*,r,*-9><: {rn nqhkfffffghjommlmh nqhkffffffiionfok rlfqjgjokiklokfjgfl rnqmmkioiljlgmmlhhl:roni o n roqlmongnilhiohoijfh mqoognkgffkffoogfh o n o 90-(>-;@) V V V V |
  1
<0:;8: {rn {mng {mng {mkm {mkl 90-(>-; {moo {rn |
  1
9><: {rn {nfg {mkk {m {rn {mkj 90-(>-; ,6183: |
  1
+0-*,r,*-9><: {rn nqhkfffffghjommmfm nqhkffffffiionfok rnoqolhkjillkikfkng rnqmmkioiljlgmmlhhl:roni o n nqiojfijhkijikknok roqomnlohmoiiinnmkkji o n o 90-(>-;@) V V V V |
  1
9><: {rn {mki {mkh {m {rn {mkg 90-(>-; ,6183: |
  1
300/ {rn {mkf {mjo {mol |
  1
+0-*,r,*-9><: {rn nqhkfffffghjommmfm nqhkffffffiionfok rnoqhnjlnhjlkojgmf rnqmmkioiljlgmmlhhl:roni o n nqiojfijhkijikknok roqomnlohmoiiinnmkkji o n o 90-(>-;@) V V V V |
  1
300/ {rn {rn {mmi {ngi |
  1
<0:;8: {rn {mmj {mmj {mjn {mjm -:):-,:; {mok {rn |
  1
<0:;8: {rn {mmi {mmi {moh {mmh 90-(>-; {mmk {rn |
  1
:;8: {rn {mjl {mjl {mmi {mjk 90-(>-; |
  1
):-+:' {rn {mof {mjj |
  1
:336/,:r<*-): {rn nqhkfffffghjommmfm nqhkffffffiionfok rnnqkohgklfffgoojlm rnqmmkioiljlgmmlhhl:roni o n rnqjfojogkgmmgmgohl o gqkkhnhjfoojojjgig:roni n V V |
  1
<0:;8: {rn {mji {mno {mln {mjh -:):-,:; {mlm {mjg |
  1
<0:;8: {rn {mno {mji {mlo {mjh 90-(>-; {mlm {mjf |
  1
300/ {rn {rn {mln {mio |
  1
/<*-): {rn o -:):-,:; $ :'//< 1*=, n /:-60;6< m 
  1
 o n iqmglngjlohnhfiook n 
  1
 rngqmkooimgifjfimll o 
  1
 rngqmkooimgifjfimll iqmglngjlohnhfiook 
  1
 o 
  1
 ,/361: 90-(>-; $ -0+,*- 
  1
 61+<*-): -:):-,:; $ :'><+<*- 1*=, l 0/:1 j 
  1
 o l oqngikfonhngglmhngj n oqkgmolklnhkifkfhhi n nqnogkomgmogljnhnh n ngqmkooimgifjfimll l 
  1
 oqlnmnnkninhmojgnnj nqhkffffffiionfok rmfqfjloooglgnjkfhg 
  1
 oqmjoiokinnjoiikfgn nqhkffffffiionfok rmfqfmfonhojiifkggf 
  1
 oqofninijllnhimkkil nqhkffffffiionfok rmfqgihomkkgmfgiokl 
  1
 oqojohoiflnighgnolhj nqhkffffffiionfok rmfqkkggkilhhjjnimm 
  1
 oqnhnjhiifikokffjgk nqhkffffffiionfok rmlqiigfkiofljkhgn 
  1
 oqmhnfhnoonmookkjhn nqhkffffffiionfok rnhqikooijofjkknknj 
  1
 oqliggmknjiifmmigof nqhkffffffiionfok rnnqgmlglhmhlnkinon 
  1
 o 
  1
 1*33@,*-9><: 
  1
 1*33@,*-9><: 
  1
 1*33=, 
  1
 1*33=, 
  1
 V V 
  1
 o 
  1
 o 
  1
 l oqngikfonhngglmhngj oqkgmolklnhkifkfhhi nqnogkomgmogljnhnh 
  1
 Y n Y o " V V 
  1
 nqhkfffffghjommmgl nqhkffffffiionfok rfqmkllfmmoiklhmngf:roog rnqmmkioiljlgmmlhhl:roni o n 
  1
 Y rngqmkooimgifjfimll Y o Y o Y iqmglngjlohnhfiook o 
  1
 o 
  1
 l rnqnogkomgmogljnhnh roqkgmolklnhkifkfhhi roqngikfonhngglmhngj 
  1
 o 
  1
 o 
  1
 o 
  1
 " V V V V 
  1
 " o o |
  1
):-+:' {rn {mjh {min |
  1
:336/,:r<*-): {rn nqhkfffffghjommlon nqhkffffffiionfok rnnqgmlglhmhlnkinon rnqmmkioiljlgmmlhhl:roni o n rnqlgnnhjglogoffim o hqlljknmnnijmgjmn:roni n V V |
  1
/061+ {rn oqnjfkfnjojmnfkmmhf nqhkffffffiionfok rnnqhnhkkkoiiglgmll |
  1
9><: {rn {mim {mil {m {rn {mik 90-(>-; ,6183: |
  1
300/ {rn {nfk {mij {mnk |
  1
+0-*,r,*-9><: {rn nqhkfffffghjommlng nqhkffffffiionfok rlmqljomnkgijnmffmg rnqmmkioiljlgmmlhhl:roni o n nqkjjnmionnmjggfjh roqomlhikgfoinlhmigm o n o 90-(>-;@) V V V V |
  1
<0:;8: {rn {mko {mko {mni {mkn -:):-,:; {mkk {rn |
  1
:;8: {rn {mii {mii {mni {mih 90-(>-; |
  1
<0:;8: {rn {mkm {mkm {mng {mkl -:):-,:; {mig {rn |
  1
:;8: {rn {mif {mif {mng {mho 90-(>-; |
  1
300/ {rn {rn {mko {mnf |
  1
/3>1:r,*-9><: {rn nqnfhioohnjolmflki nqhkffffffiionfok rknqooooooofmkllfmm nqmmkioiljlgmmlhhl:roni o rn o rn o 90-(>-;@) V V V V |
  1
9><: {rn {mhn {mhm {m {rn {mhl 90-(>-; ,6183: |
  1
300/ {rn {mhk {mhj {mmn |
  1
+0-*,r,*-9><: {rn nqhkfffffghjommmfm nqhkffffffiionfok rnoqjkjgjmmlkmoiohl rnqmmkioiljlgmmlhhl:roni o n nqjnimhloglkjmgkkg oqnhnihfhhkokhnjmki o n o 90-(>-;@) V V V V |
  1
300/ {rn {rn {mjn {mol |
  1
<0:;8: {rn {mjo {mjo {mhi {mhh -:):-,:; {mmm {rn |
  1
<0:;8: {rn {mjn {mjn {mmj {mjm 90-(>-; {mkf {rn |
  1
:;8: {rn {mhg {mhg {mjn {mhf 90-(>-; |
  1
):-+:' {rn {mmh {mgo |
  1
:336/,:r<*-): {rn nqhkfffffghjommmfm nqhkffffffiionfok rnnqlhgjnlkihnllg rnqmmkioiljlgmmlhhl:roni o n rnqjfojogkgmmgmgohn o gqkkhnhjfoojojjgjg:roni n V V |
  1
/061+ {rn oqnjfkfnjojmnfkmmhf nqhkffffffiionfok rnnqkohgklfffgoojlm |
  1
<0:;8: {rn {mln {mlo {mgn {mgm 90-(>-; {mlm {mgl |
  1
:;8: {rn {mgk {mlk {mln {mgj 90-(>-; |
  1
/<*-): {rn o -:):-,:; $ :'//< 1*=, n 0/:1 m 
  1
 o n ngqmkooimgifjfimll n 
  1
 o o 
  1
 rngqmkooimgifjfimll o 
  1
 o 
  1
 ,/361: 90-(>-; $ -:9 n " V V V V 
  1
 " o o |
  1
/<*-): {rn o 90-(>-; $ :'//< 1*=, n 0/:1 m 
  1
 o n ngqmkooimgifjfimll n 
  1
 o iqmglngjlohnhfiook 
  1
 rngqmkooimgifjfimll iqmglngjlohnhfiook 
  1
 o 
  1
 ,/361: 90-(>-; $ -:9 n " V V V V 
  1
 " o o |
  1
9><: {rn {rn {mlm {m {rn {mgi 90-(>-; ,6183: |
  1
/061+ {rn oqliggmknjiifmmigof nqhkffffffiionfok rnnqgmlglhmhlnkinon |
  1
9><: {rn {mgh {mgg {m {rn {mgf 90-(>-; ,6183: |
  1
300/ {rn {mfo {mfn {mlh |
  1
+0-*,r,*-9><: {rn nqhkfffffghjommlng nqhkffffffiionfok rlmqofhjgigmfijfmmg rnqmmkioiljlgmmlhhl:roni o n nqlijnklokjkgifkfg oqmkhmnjigomlikhmmg o n o 90-(>-;@) V V V V |
  1
<0:;8: {rn {mij {mij {mfm {mfl -:):-,:; {mlg {rn |
  1
):-+:' {rn {mkn {mfk |
  1
:336/,:r<*-): {rn nqhkfffffghjommlli nqhkffffffiionfok rknqooooooofmkllfmm rnqmmkioiljlgmmlhhl:roni o n rnqnokhfgjkkflgjfhn o jqgihjhkgfihjjmgfk:roni n V V |
  1
300/ {rn {mfj {mkm {mhn |
  1
):-+:' {rn {mkl {mfi |
  1
:336/,:r<*-): {rn nqhkfffffghjommmfm nqhkffffffiionfok rnoqojmnmnioofgmhgj rnqmmkioiljlgmmlhhl:roni o n rnqjfojogkgmmgmgohn o gqkkhnhjfoojojjgjg:roni n V V |
  1
9><: {rn {mon {mig {m {rn {mfh 90-(>-; ,6183: |
  1
300/ {rn {mfg {mff {mki |
  1
+0-*,r,*-9><: {rn nqhkfffffghjommmfm nqhkffffffiionfok rnoqlhilgiflkljlgjl rnqmmkioiljlgmmlhhl:roni o n nqiojfijhkijikknok roqomnlohmoiiinnmkkji o n o 90-(>-;@) V V V V |
  1
300/ {rn {rn {mhi {mmn |
  1
<0:;8: {rn {mhj {mhj {loo {lon -:):-,:; {mkh {rn |
  1
<0:;8: {rn {mhi {mhi {mjo {mhh 90-(>-; {mhk {rn |
  1
:;8: {rn {lom {lom {mhi {lol 90-(>-; |
  1
):-+:' {rn {mjm {lok |
  1
:336/,:r<*-): {rn nqhkfffffghjommmfm nqhkffffffiionfok rnoqhmffgmgoolfnijj rnqmmkioiljlgmmlhhl:roni o n rnqjfojogkgmmgmgoii o gqkkhnhjfoojojjgmg:roni n V V |
  1
/061+ {rn oqnjfkfnjojmnfkmmhf nqhkffffffiionfok rnnqlhgjnlkihnllg |
  1
<0:;8: {rn {mgn {mgn {mji {mgm -:):-,:; {loj {rn |
  1
:;8: {rn {mgk {mgk {mji {loi 90-(>-; |
  1
/<*-): {rn o 90-(>-; $ :'//< 1*=, n /:-60;6< m 
  1
 o n iqmglngjlohnhfiook n 
  1
 o o 
  1
 o iqmglngjlohnhfiook 
  1
 o 
  1
 ,/361: 90-(>-; $ -:9 n " V V V V 
  1
 " o o |
  1
):-+:' {rn {mjh {loh |
  1
61+<*-):r<*-): {rn 90-(>-; $ -:9 m " V V |
  1
,/361:r,*-9><: {rn 90-(>-; $ -:9 n " V V V V |
  1
9><: {rn {log {lof {m {rn {lno 90-(>-; ,6183: |
  1
300/ {rn {lnn {lnm {mim |
  1
+0-*,r,*-9><: {rn nqhkfffffghjommlng nqhkffffffiionfok rlnqgkkfjghfknggjkl rnqmmkioiljlgmmlhhl:roni o n nqkjjnmionnmjggfjh roqomlhikgfoinlhmigm o n o 90-(>-;@) V V V V |
  1
300/ {rn {rn {mfm {mlh |
  1
<0:;8: {rn {mfn {mfn {lnl {lnk -:):-,:; {mil {rn |
  1
<0:;8: {rn {mfm {mfm {mij {mfl 90-(>-; {mfo {rn |
  1
:;8: {rn {lnj {lnj {mfm {lni 90-(>-; |
  1
/061+ {rn oqikjmonkkmjililjij nqhkffffffiionfok rknqooooooofmkllfmm |
  1
300/ {rn {rn {lnh {mhn |
  1
/061+ {rn oqnjfkfnjojmnfkmmhf nqhkffffffiionfok rnoqojmnmnioofgmhgj |
  1
+0-*,r,*-9><: {rn nqhkfffffghjommmfm nqhkffffffiionfok rnoqmoifmnilkjonili rnqmmkioiljlgmmlhhl:roni o n nqjnimhloglkjmgkkg oqnhnihfhhkokhnjmki o n o 90-(>-;@) V V V V |
  1
300/ {rn {rn {loo {mki |
  1
<0:;8: {rn {mff {mff {lnh {lng -:):-,:; {mhm {rn |
  1
<0:;8: {rn {loo {loo {mhj {lon 90-(>-; {mfg {rn |
  1
:;8: {rn {lnf {lnf {loo {lmo 90-(>-; |
  1
):-+:' {rn {mhh {lmn |
  1
:336/,:r<*-): {rn nqhkfffffghjommmfm nqhkffffffiionfok rnoqhooijmmihhmkfmj rnqmmkioiljlgmmlhhl:roni o n rnqjfojogkgmmgmgoig o gqkkhnhjfoojojjglg:roni n V V |
  1
/061+ {rn oqnjfkfnjojmnfkmmhf nqhkffffffiionfok rnoqhmffgmgoolfnijj |
  1
300/ {rn {lmm {mgn {lml |
  1
:336/,:r<*-): {rn nqhkfffffghjommlng nqhkffffffiionfok rmfqfjloooglgnjkfhg rnqmmkioiljlgmmlhhl:roni o n rnqklhggjgmjhgnijol o hqilijfglhhjnmgimm:roni n V V |
  1
/061+ {rn oqlnmnnkninhmojgnnj nqhkffffffiionfok rmfqfjloooglgnjkfhg |
  1
9><: {rn {lmk {lmj {m {rn {lmi 90-(>-; ,6183: |
  1
300/ {rn {lmh {lmg {mgh |
  1
+0-*,r,*-9><: {rn nqhkfffffghjommlng nqhkffffffiionfok rlnqnjfhgimiggmhmnf rnqmmkioiljlgmmlhhl:roni o n oqmklmnffinmmogifji nqlifnlghikjomjjog o n o 90-(>-;@) V V V V |
  1
300/ {rn {rn {lnl {mim |
  1
<0:;8: {rn {lnm {lnm {lmf {llo -:):-,:; {mgg {rn |
  1
<0:;8: {rn {lnl {lnl {mfn {lnk 90-(>-; {lnn {rn |
  1
:;8: {rn {lln {lln {lnl {llm 90-(>-; |
  1
):-+:' {rn {mfl {lll |
  1
:336/,:r<*-): {rn nqhkfffffghjommlng nqhkffffffiionfok rlmqlllgjgolohiolgf rnqmmkioiljlgmmlhhl:roni o n rnqklhggjgmjhgnijoh o hqilijfglhhjnmgikn:roni n V V |
  1
<0:;8: {rn {lnh {lnh {mff {lng 90-(>-; {mfj {rn |
  1
:;8: {rn {llk {llk {lnh {llj 90-(>-; |
  1
):-+:' {rn {lon {lli |
  1
:336/,:r<*-): {rn nqhkfffffghjommmfm nqhkffffffiionfok rnoqlfnojmmooighmmm rnqmmkioiljlgmmlhhl:roni o n rnqjfojogkgmmgmgoii o gqkkhnhjfoojojjgmg:roni n V V |
  1
/061+ {rn oqnjfkfnjojmnfkmmhf nqhkffffffiionfok rnoqhooijmmihhmkfmj |
  1
300/ {rn {rn {llh {lml |
  1
9><: {rn {mio {loj {m {rn {llg 90-(>-; ,6183: |
  1
9><: {rn {lml {llf {m {rn {lko 90-(>-; ,6183: |
  1
300/ {rn {lkn {lkm {log |
  1
+0-*,r,*-9><: {rn nqhkfffffghjommlng nqhkffffffiionfok rloqkhkinlhklkijgfg rnqmmkioiljlgmmlhhl:roni o n nqkjjnmionnmjggfjn roqomlhikgfoinlhmigm o n o 90-(>-;@) V V V V |
  1
300/ {rn {rn {lmf {mgh |
  1
<0:;8: {rn {lmg {lmg {lkl {lkk -:):-,:; {lof {rn |
  1
<0:;8: {rn {lmf {lmf {lnm {llo 90-(>-; {lmh {rn |
  1
:;8: {rn {lkj {lkj {lmf {lki 90-(>-; |
  1
):-+:' {rn {lnk {lkh |
  1
:336/,:r<*-): {rn nqhkfffffghjommlng nqhkffffffiionfok rlnqginlnjimgjjgogj rnqmmkioiljlgmmlhhl:roni o n rnqklhggjgmjhgnijhi o hqilijfglhhjnmfooi:roni n V V |
  1
/061+ {rn oqlnmnnkninhmojgnnj nqhkffffffiionfok rlmqlllgjgolohiolgf |
  1
):-+:' {rn {lng {lkg |
  1
:336/,:r<*-): {rn nqhkfffffghjommmfm nqhkffffffiionfok rnoqlinhmniigomokgg rnqmmkioiljlgmmlhhl:roni o n rnqjfojogkgmmgmgoig o gqkkhnhjfoojojjglg:roni n V V |
  1
/061+ {rn oqnjfkfnjojmnfkmmhf nqhkffffffiionfok rnoqlfnojmmooighmmm |
  1
<0:;8: {rn {llh {llh {lkf {ljo 90-(>-; {lmm {rn |
  1
+0-*,r,*-9><: {rn nqhkfffffghjommlng nqhkffffffiionfok rmfqfifljhihmjmkjnh rnqmmkioiljlgmmlhhl:roni o n nqkjjnmionnmjggfjj roqomlhikgfoinlhmigm o n o 90-(>-;@) V V V V |
  1
300/ {rn {ljn {lkf {lmk |
  1
+0-*,r,*-9><: {rn nqhkfffffghjommlng nqhkffffffiionfok rloqmmnfgjhohffjmoi rnqmmkioiljlgmmlhhl:roni o n nqlijnklokjkgifkkf oqmkhmnjigomlikhnkh o n o 90-(>-;@) V V V V |
  1
300/ {rn {rn {lkl {log |
  1
<0:;8: {rn {lkm {lkm {ljm {ljl -:):-,:; {lmj {rn |
  1
<0:;8: {rn {lkl {lkl {lmg {lkk 90-(>-; {lkn {rn |
  1
:;8: {rn {ljk {ljk {lkl {ljj 90-(>-; |
  1
):-+:' {rn {llo {lji |
  1
:336/,:r<*-): {rn nqhkfffffghjommlng nqhkffffffiionfok rlnqgmgionfjfgnf rnqmmkioiljlgmmlhhl:roni o n rnqklhggjgmjhgnijoh o hqilijfglhhjnmgikn:roni n V V |
  1
/061+ {rn oqlnmnnkninhmojhkoj nqhkffffffiionfok rlnqginlnjimgjjgogj |
  1
/061+ {rn oqnjfkfnjojmnfkmmhf nqhkffffffiionfok rnoqlinhmniigomokgg |
  1
<0:;8: {rn {lkf {lkf {llh {ljo -:):-,:; {llf {rn |
  1
:;8: {rn {ljh {ljh {llh {ljg 90-(>-; |
  1
300/ {rn {rn {ljm {lmk |
  1
<0:;8: {rn {ljm {ljm {lkm {ljl 90-(>-; {ljn {rn |
  1
:;8: {rn {ljf {ljf {ljm {lio 90-(>-; |
  1
):-+:' {rn {lkk {lin |
  1
:336/,:r<*-): {rn nqhkfffffghjommlng nqhkffffffiionfok rloqkfofhojhhgljklh rnqmmkioiljlgmmlhhl:roni o n rnqklhggjgmjhgnikfk o hqilijfglhhjnmgjhm:roni n V V |
  1
/061+ {rn oqlnmnnkninhmojgnnj nqhkffffffiionfok rlnqgmgionfjfgnf |
  1
):-+:' {rn {ljo {lim |
  1
:336/,:r<*-): {rn nqhkfffffghjommlng nqhkffffffiionfok rmfqfgjhnkjoigfkoim rnqmmkioiljlgmmlhhl:roni o n rnqklhggjgmjhgnijjn o hqilijfglhhjnmgghg:roni n V V |
  1
):-+:' {rn {ljl {lil |
  1
:336/,:r<*-): {rn nqhkfffffghjommlng nqhkffffffiionfok rloqkjgmjifofofilji rnqmmkioiljlgmmlhhl:roni o n rnqklhggjgmjhgnij o hqilijfglhhjnmginm:roni n V V |
  1
/061+ {rn oqlnmnnkninhmojgmfl nqhkffffffiionfok rloqkfofhojhhgljklh |
  1
/061+ {rn oqlnmnnkninhmojhihn nqhkffffffiionfok rmfqfgjhnkjoigfkoim |
  1
/061+ {rn oqlnmnnkninhmojgmok nqhkffffffiionfok rloqkjgmjifofofilji |
  0
ENDBLK
  5
59D
330
59A
100
AcDbEntity
  8
0
100
AcDbBlockEnd
  0
BLOCK
  5
80D
330
7FA
100
AcDbEntity
  8
0
100
AcDbBlockBegin
  2
A$C6CF0041D
 70
     0
 10
0.0
 20
0.0
 30
0.0
  3
A$C6CF0041D
  1

  0
3DSOLID
  5
7FB
330
7FA
100
AcDbEntity
  8
0
100
AcDbModelerGeometry
 70
     1
  1
koo gj n o          
  1
ni ^ *+0;:,4 ^ *+0\^ [ nh ^ LR nmqoqnqgmo QK o  
  1
mjqlffffffffffffff fqfffffffffffffffj:rooh n:rono 
  1
=0;& {rn {n {rn {rn |
  1
3*2/ {rn {rn {m {o |
  1
,7:33 {rn {rn {rn {l {rn {n |
  1
9><: {rn {k {j {m {rn {i 90-(>-; ,6183: |
  1
9><: {rn {h {g {m {rn {f 90-(>-; ,6183: |
  1
300/ {rn {rn {no {l |
  1
/3>1:r,*-9><: {rn kqmnljiihlffilkmjg:roog kqkknmmomjigljmflf o rn o o o o n 90-(>-;@) V V V V |
  1
9><: {rn {nn {nm {m {rn {nl 90-(>-; ,6183: |
  1
300/ {rn {rn {nk {k |
  1
/3>1:r,*-9><: {rn kqmnljiihlffilkmjg:roog hqfknmmomjigljmflf o o n o o o n 90-(>-;@) V V V V |
  1
<0:;8: {rn {nj {ni {nh {ng 90-(>-; {j {rn |
  1
9><: {rn {nf {mo {m {rn {mn 90-(>-; ,6183: |
  1
300/ {rn {rn {mm {h |
  1
/3>1:r,*-9><: {rn kqfffffffookkfifkm hqfknmmomjigljmflf o n o o o o rn 90-(>-;@) V V V V |
  1
<0:;8: {rn {ml {mk {mj {mi 90-(>-; {g {rn |
  1
<0:;8: {rn {mh {no {mk {mg -:):-,:; {j {rn |
  1
<0:;8: {rn {no {mh {mf {lo 90-(>-; {j {rn |
  1
<0:;8: {rn {ln {mj {no {ng -:):-,:; {lm {rn |
  1
:;8: {rn {ll {lk {no {lj 90-(>-; |
  1
9><: {rn {li {lm {m {rn {lh 90-(>-; ,6183: |
  1
300/ {rn {rn {lg {nn |
  1
/3>1:r,*-9><: {rn kqfffffffookkfifkm kqkknmmomjigljmflf o o rn o o o rn 90-(>-;@) V V V V |
  1
<0:;8: {rn {lf {ko {kn {km 90-(>-; {nm {rn |
  1
<0:;8: {rn {kl {nk {ko {kk -:):-,:; {g {rn |
  1
<0:;8: {rn {nk {kl {nj {mg 90-(>-; {g {rn |
  1
<0:;8: {rn {nh {kn {nk {mi -:):-,:; {lm {rn |
  1
:;8: {rn {lk {kj {nk {ki 90-(>-; |
  1
<0:;8: {rn {ni {nj {kh {kg 90-(>-; {j {rn |
  1
:;8: {rn {kf {lk {mk {jo 90-(>-; |
  1
<0:;8: {rn {jn {lg {ni {lo -:):-,:; {mo {rn |
  1
:;8: {rn {jm {ll {ni {jl 90-(>-; |
  1
<0:;8: {rn {kn {nh {lg {jk -:):-,:; {lm {rn |
  1
300/ {rn {rn {nh {nf |
  1
):-+:' {rn {lo {jj |
  1
):-+:' {rn {mg {ji |
  1
,+->687+r<*-): {rn kqmnljiihlffilkmjg:roog hqfknmmomjigljmflf lqj o n o V V |
  1
9><: {rn {rn {jh {m {rn {jg -:):-,:; ,6183: |
  1
/3>1:r,*-9><: {rn mqkffffffhnmfmihhl iqnfnmmomjigljmflf lqj o o n n o o 90-(>-;@) V V V V |
  1
<0:;8: {rn {mf {jf {ln {jk 90-(>-; {mo {rn |
  1
<0:;8: {rn {io {mm {jf {in -:):-,:; {nm {rn |
  1
<0:;8: {rn {mm {io {ml {kk 90-(>-; {nm {rn |
  1
<0:;8: {rn {mj {ln {mm {km -:):-,:; {lm {rn |
  1
:;8: {rn {kj {im {mm {il 90-(>-; |
  1
<0:;8: {rn {mk {ml {ik {ij 90-(>-; {g {rn |
  1
:;8: {rn {ii {kj {ko {ih 90-(>-; |
  1
):-+:' {rn {kk {ig |
  1
,+->687+r<*-): {rn kqfffffffookkfifkm hqfknmmomjigljmflf lqj n o o V V |
  1
<0:;8: {rn {ik {if {mh {kg -:):-,:; {jh {rn |
  1
:;8: {rn {kf {jm {kh {ho 90-(>-; |
  1
):-+:' {rn {ij {hn |
  1
,+->687+r<*-): {rn kqmnljiihlffilkmjg:roog hqfknmmomjigljmflf o o o n V V |
  1
<0:;8: {rn {jf {mf {if {hm 90-(>-; {mo {rn |
  1
):-+:' {rn {hm {hl |
  1
,+->687+r<*-): {rn kqmnljiihlffilkmjg:roog kqkknmmomjigljmflf o o o n V V |
  1
:;8: {rn {im {ll {lg {hk 90-(>-; |
  1
/061+ {rn kqmnljiihlffilkmjg:roog kqkknmmomjigljmflf lqj |
  1
/061+ {rn kqmnljiihlffilkmjg:roog hqfknmmomjigljmflf lqj |
  1
300/ {rn {rn {if {li |
  1
/3>1:r,*-9><: {rn mqkffffffhnmfmihhl iqnfnmmomjigljmflf o o o n n o o 90-(>-;@) V V V V |
  1
<0:;8: {rn {lg {jn {lf {in 90-(>-; {mo {rn |
  1
<0:;8: {rn {ko {lf {hj {hi 90-(>-; {nm {rn |
  1
:;8: {rn {hh {im {jf {hg 90-(>-; |
  1
):-+:' {rn {in {hf |
  1
,+->687+r<*-): {rn kqfffffffookkfifkm kqkknmmomjigljmflf lqj o rn o V V |
  1
<0:;8: {rn {hj {kh {kl {ij -:):-,:; {jh {rn |
  1
:;8: {rn {ii {kf {ik {go 90-(>-; |
  1
):-+:' {rn {hi {gn |
  1
,+->687+r<*-): {rn kqfffffffookkfifkm hqfknmmomjigljmflf o o o n V V |
  1
/061+ {rn kqfffffffookkfifkm hqfknmmomjigljmflf lqj |
  1
<0:;8: {rn {kh {hj {jn {hm -:):-,:; {jh {rn |
  1
,+->687+r<*-): {rn kqmnljiihlffilkmjg:roog hqfknmmomjigljmflf o o rn o V V |
  1
/061+ {rn kqmnljiihlffilkmjg:roog hqfknmmomjigljmflf o |
  1
:;8: {rn {jm {hh {if {gm 90-(>-; |
  1
/061+ {rn kqmnljiihlffilkmjg:roog kqkknmmomjigljmflf o |
  1
,+->687+r<*-): {rn kqmnljiihlffilkmjg:roog kqkknmmomjigljmflf lqj rn o o V V |
  1
<0:;8: {rn {if {ik {io {hi -:):-,:; {jh {rn |
  1
:;8: {rn {hh {ii {hj {gl 90-(>-; |
  1
):-+:' {rn {hm {gk |
  1
,+->687+r<*-): {rn kqfffffffookkfifkm kqkknmmomjigljmflf o o o n V V |
  1
/061+ {rn kqfffffffookkfifkm kqkknmmomjigljmflf lqj |
  1
,+->687+r<*-): {rn kqfffffffookkfifkm hqfknmmomjigljmflf o rn o o V V |
  1
/061+ {rn kqfffffffookkfifkm hqfknmmomjigljmflf o |
  1
,+->687+r<*-): {rn kqmnljiihlffilkmjg:roog kqkknmmomjigljmflf o n o o V V |
  1
,+->687+r<*-): {rn kqfffffffookkfifkm kqkknmmomjigljmflf o o n o V V |
  1
/061+ {rn kqfffffffookkfifkm kqkknmmomjigljmflf o |
  0
LINE
  5
7FC
330
7FA
100
AcDbEntity
  8
0
100
AcDbLine
 10
5.000000042135662
 20
-0.0000000245247094
 30
0.0
 11
0.0000000717943287
 21
-0.0000000289086231
 31
0.0
  0
LINE
  5
7FD
330
7FA
100
AcDbEntity
  8
0
100
AcDbLine
 10
5.000000042135662
 20
-0.0000000245247094
 30
0.0
 11
5.000000027104229
 21
0.4615097737232273
 31
0.0
  0
LINE
  5
7FE
330
7FA
100
AcDbEntity
  8
0
100
AcDbLine
 10
0.0000000717943287
 20
-0.0000000289086231
 30
0.0
 11
0.0000000244049403
 21
1.439457434445835
 31
0.0
  0
ARC
  5
7FF
330
7FA
100
AcDbEntity
  8
0
100
AcDbCircle
 10
4.859758361384049
 20
0.4611361573948276
 30
0.0
 40
0.1402421633929372
100
AcDbArc
 50
0.1526407150195142
 51
54.76532463984246
  0
ARC
  5
800
330
7FA
100
AcDbEntity
  8
0
100
AcDbCircle
 10
0.1954958324734299
 20
1.338346649164406
 30
0.0
 40
0.2200954381003404
100
AcDbArc
 50
7.188695910403327
 51
152.6519129916981
  0
ARC
  5
801
330
7FA
100
AcDbEntity
  8
0
100
AcDbCircle
 10
5.047961861583151
 20
1.062476078182646
 30
0.0
 40
0.498474869578017
100
AcDbArc
 50
207.1896183366433
 51
257.5701196522426
  0
LINE
  5
802
330
7FA
100
AcDbEntity
  8
0
100
AcDbLine
 10
0.4138611904525116
 20
1.365888840566843
 30
0.0
 11
0.5330987490738403
 21
1.365888840566839
 31
0.0
  0
ARC
  5
803
330
7FA
100
AcDbEntity
  8
0
100
AcDbCircle
 10
4.345546097559836
 20
0.6606501082303941
 30
0.0
 40
0.3120701187076943
100
AcDbArc
 50
33.89975546574923
 51
143.6678372948011
  0
LINE
  5
804
330
7FA
100
AcDbEntity
  8
0
100
AcDbLine
 10
0.5330987490738403
 20
1.365888840566839
 30
0.0
 11
0.8244305667594565
 21
0.9506355313039982
 31
0.0
  0
ARC
  5
805
330
7FA
100
AcDbEntity
  8
0
100
AcDbCircle
 10
4.028693841419026
 20
0.8008760519626816
 30
0.0
 40
0.0792378230625547
100
AcDbArc
 50
34.31072709911048
 51
173.562128406711
  0
ARC
  5
806
330
7FA
100
AcDbEntity
  8
0
100
AcDbCircle
 10
0.8880025964390691
 20
0.9443520334029892
 30
0.0
 40
0.0638818072964241
100
AcDbArc
 50
5.644814906206472
 51
174.355185093792
  0
ARC
  5
807
330
7FA
100
AcDbEntity
  8
0
100
AcDbCircle
 10
3.754518071426656
 20
1.450430348831025
 30
0.0
 40
0.6698160349076946
100
AcDbArc
 50
238.8122406829243
 51
286.9644355129512
  0
ARC
  5
808
330
7FA
100
AcDbEntity
  8
0
100
AcDbCircle
 10
2.001578723363024
 20
0.638950897696736
 30
0.0
 40
1.095288051179609
100
AcDbArc
 50
46.83884625467832
 51
163.4669340072467
  0
ARC
  5
809
330
7FA
100
AcDbEntity
  8
0
100
AcDbCircle
 10
4.309224195350748
 20
2.1599819122191
 30
0.0
 40
1.567733531129955
100
AcDbArc
 50
207.4255907970475
 51
234.8950192635844
  0
LINE
  5
80A
330
7FA
100
AcDbEntity
  8
0
100
AcDbLine
 10
2.750813484660173
 20
1.437889686040894
 30
0.0
 11
2.917688625729113
 21
1.437889686040897
 31
0.0
  0
ENDBLK
  5
80E
330
7FA
100
AcDbEntity
  8
0
100
AcDbBlockEnd
  0
BLOCK
  5
8F8
330
8F7
100
AcDbEntity
  8
ASHADE
100
AcDbBlockBegin
  2
AVE_GLOBAL
 70
     0
 10
0.0
 20
0.0
 30
0.0
  3
AVE_GLOBAL
  1
AVE_GLOBAL
  0
ENDBLK
  5
8F9
330
8F7
100
AcDbEntity
  8
0
100
AcDbBlockEnd
  0
BLOCK
  5
901
330
900
100
AcDbEntity
  8
ASHADE
100
AcDbBlockBegin
  2
AVE_RENDER
 70
     0
 10
0.0
 20
0.0
 30
0.0
  3
AVE_RENDER
  1
AVE_RENDER
  0
ENDBLK
  5
902
330
900
100
AcDbEntity
  8
0
100
AcDbBlockEnd
  0
BLOCK
  5
D17
330
D16
100
AcDbEntity
  8
ASHADE
100
AcDbBlockBegin
  2
RM_SDB
 70
     2
 10
0.0
 20
0.0
 30
0.0
  3
RM_SDB
  1
RM_SDB
  0
ATTDEF
  5
D18
330
D16
100
AcDbEntity
  8
0
100
AcDbText
 10
0.0
 20
0.0
 30
0.0
 40
0.2
  1

100
AcDbAttributeDefinition
  3

  2
NAME
 70
     1
  0
ATTDEF
  5
D19
330
D16
100
AcDbEntity
  8
0
100
AcDbText
 10
0.0
 20
0.0
 30
0.0
 40
0.2
  1

100
AcDbAttributeDefinition
  3

  2
ACADCOLOR
 70
     1
  0
ATTDEF
  5
D1A
330
D16
100
AcDbEntity
  8
0
100
AcDbText
 10
0.0
 20
0.0
 30
0.0
 40
0.2
  1

100
AcDbAttributeDefinition
  3

  2
COLOR
 70
     1
  0
ATTDEF
  5
D1B
330
D16
100
AcDbEntity
  8
0
100
AcDbText
 10
0.0
 20
0.0
 30
0.0
 40
0.2
  1

100
AcDbAttributeDefinition
  3

  2
OPACITY
 70
     1
  0
ATTDEF
  5
D1C
330
D16
100
AcDbEntity
  8
0
100
AcDbText
 10
0.0
 20
0.0
 30
0.0
 40
0.2
  1

100
AcDbAttributeDefinition
  3

  2
SURFACE
 70
     1
  0
ATTDEF
  5
D1D
330
D16
100
AcDbEntity
  8
0
100
AcDbText
 10
0.0
 20
0.0
 30
0.0
 40
0.2
  1

100
AcDbAttributeDefinition
  3

  2
SURF1
 70
     1
  0
ATTDEF
  5
D1E
330
D16
100
AcDbEntity
  8
0
100
AcDbText
 10
0.0
 20
0.0
 30
0.0
 40
0.2
  1

100
AcDbAttributeDefinition
  3

  2
SURF2
 70
     1
  0
ATTDEF
  5
D1F
330
D16
100
AcDbEntity
  8
0
100
AcDbText
 10
0.0
 20
0.0
 30
0.0
 40
0.2
  1

100
AcDbAttributeDefinition
  3

  2
SURF3
 70
     1
  0
ATTDEF
  5
D20
330
D16
100
AcDbEntity
  8
0
100
AcDbText
 10
0.0
 20
0.0
 30
0.0
 40
0.2
  1

100
AcDbAttributeDefinition
  3

  2
SURF4
 70
     1
  0
ATTDEF
  5
D21
330
D16
100
AcDbEntity
  8
0
100
AcDbText
 10
0.0
 20
0.0
 30
0.0
 40
0.2
  1

100
AcDbAttributeDefinition
  3

  2
SHADINGRATE
 70
     1
  0
ATTDEF
  5
D22
330
D16
100
AcDbEntity
  8
0
100
AcDbText
 10
0.0
 20
0.0
 30
0.0
 40
0.2
  1

100
AcDbAttributeDefinition
  3

  2
DISPLACEMENT
 70
     1
  0
ATTDEF
  5
D23
330
D16
100
AcDbEntity
  8
0
100
AcDbText
 10
0.0
 20
0.0
 30
0.0
 40
0.2
  1

100
AcDbAttributeDefinition
  3

  2
DISP1
 70
     1
  0
ATTDEF
  5
D24
330
D16
100
AcDbEntity
  8
0
100
AcDbText
 10
0.0
 20
0.0
 30
0.0
 40
0.2
  1

100
AcDbAttributeDefinition
  3

  2
DISP2
 70
     1
  0
ATTDEF
  5
D25
330
D16
100
AcDbEntity
  8
0
100
AcDbText
 10
0.0
 20
0.0
 30
0.0
 40
0.2
  1

100
AcDbAttributeDefinition
  3

  2
DISP3
 70
     1
  0
ATTDEF
  5
D26
330
D16
100
AcDbEntity
  8
0
100
AcDbText
 10
0.0
 20
0.0
 30
0.0
 40
0.2
  1

100
AcDbAttributeDefinition
  3

  2
DISP4
 70
     1
  0
ATTDEF
  5
D27
330
D16
100
AcDbEntity
  8
0
100
AcDbText
 10
0.0
 20
0.0
 30
0.0
 40
0.2
  1

100
AcDbAttributeDefinition
  3

  2
DBOUND
 70
     1
  0
ATTDEF
  5
D28
330
D16
100
AcDbEntity
  8
0
100
AcDbText
 10
0.0
 20
0.0
 30
0.0
 40
0.2
  1

100
AcDbAttributeDefinition
  3

  2
SMOOTH
 70
     1
  0
ATTDEF
  5
D29
330
D16
100
AcDbEntity
  8
0
100
AcDbText
 10
0.0
 20
0.0
 30
0.0
 40
0.2
  1

100
AcDbAttributeDefinition
  3

  2
ATMOSHPERE
 70
     1
  0
ATTDEF
  5
D2A
330
D16
100
AcDbEntity
  8
0
100
AcDbText
 10
0.0
 20
0.0
 30
0.0
 40
0.2
  1

100
AcDbAttributeDefinition
  3

  2
ATMO1
 70
     1
  0
ATTDEF
  5
D2B
330
D16
100
AcDbEntity
  8
0
100
AcDbText
 10
0.0
 20
0.0
 30
0.0
 40
0.2
  1

100
AcDbAttributeDefinition
  3

  2
ATMO2
 70
     1
  0
ATTDEF
  5
D2C
330
D16
100
AcDbEntity
  8
0
100
AcDbText
 10
0.0
 20
0.0
 30
0.0
 40
0.2
  1

100
AcDbAttributeDefinition
  3

  2
ATMO3
 70
     1
  0
ATTDEF
  5
D2D
330
D16
100
AcDbEntity
  8
0
100
AcDbText
 10
0.0
 20
0.0
 30
0.0
 40
0.2
  1

100
AcDbAttributeDefinition
  3

  2
ATMO4
 70
     1
  0
ATTDEF
  5
D2E
330
D16
100
AcDbEntity
  8
0
100
AcDbText
 10
0.0
 20
0.0
 30
0.0
 40
0.2
  1

100
AcDbAttributeDefinition
  3

  2
TCCORD
 70
     1
  0
ENDBLK
  5
D2F
330
D16
100
AcDbEntity
  8
0
100
AcDbBlockEnd
  0
ENDSEC
  0
SECTION
  2
ENTITIES
  0
INSERT
  5
8FA
330
1F
100
AcDbEntity
  8
ASHADE
 62
     1
100
AcDbBlockReference
  2
AVE_GLOBAL
 10
0.0
 20
0.0
 30
0.0
1001
AVE_MATERIAL
1002
{
1000
*GLOBAL*
1000
2
1000
Global finish.
1002
{
1002
}
1002
{
1070
    63
1002
{
1002
{
1010
-1.0
1020
-1.0
1030
-1.0
1002
}
1040
0.6999999880790711
1000

1040
0.0
1002
{
1002
}
1040
0.0
1002
{
1002
}
1040
0.0
1002
}
1002
{
1002
{
1010
-1.0
1020
-1.0
1030
-1.0
1002
}
1040
1.0
1000

1040
0.0
1002
{
1002
}
1040
0.0
1002
{
1002
}
1040
0.0
1002
}
1002
{
1002
{
1010
-1.0
1020
-1.0
1030
-1.0
1002
}
1040
0.2000000029802322
1000

1040
0.0
1002
{
1002
}
1040
0.0
1002
{
1002
}
1040
0.0
1002
}
1002
{
1070
     0
1002
{
1070
     1
1002
{
1040
1.0
1040
1.0
1000

1040
0.0
1002
{
1002
}
1040
0.0
1002
{
1002
}
1040
0.0
1002
}
1002
}
1040
1.0
1040
0.0
1040
0.0
1002
}
1002
{
1040
1.0
1040
1.0
1000

1040
0.0
1002
{
1002
}
1040
0.0
1002
{
1002
}
1040
0.0
1002
}
1002
{
1040
0.5
1040
1.0
1000

1040
0.0
1002
{
1002
}
1040
0.0
1002
{
1002
}
1040
0.0
1002
}
1002
{
1070
     0
1040
0.0
1002
{
1002
}
1040
1.0
1002
{
1002
}
1040
0.0
1002
}
1002
{
1040
0.0
1002
{
1002
{
1010
0.0
1020
0.0
1030
0.0
1002
}
1040
1.0
1000

1040
0.0
1002
{
1002
}
1040
0.0
1002
{
1002
}
1040
0.0
1002
}
1002
}
1002
{
1002
{
1070
     1
1002
{
1040
0.0
1040
1.0
1000

1040
0.0
1002
{
1002
}
1040
0.0
1002
{
1002
}
1040
0.0
1002
}
1002
}
1040
0.0
1002
{
1002
}
1010
1.0
1020
0.0
1030
0.0
1010
0.0
1020
1.0
1030
0.0
1010
0.0
1020
0.0
1030
1.0
1070
     0
1002
}
1002
{
1002
{
1040
1.0
1040
1.0
1002
{
1070
     1
1002
{
1040
1.0
1040
1.0
1000

1040
0.0
1002
{
1002
}
1040
0.0
1002
{
1002
}
1040
0.0
1002
}
1002
}
1002
}
1070
     0
1040
0.0
1002
{
1002
}
1002
}
1002
{
1002
}
1002
}
1002
{
1071
        3
1070
     3
1070
     0
1002
{
1070
     2
1070
     0
1070
     0
1040
0.0
1002
}
1070
     0
1070
     2
1002
{
1002
}
1002
}
1002
{
1040
8030.0
1040
190.3000030517578
1040
0.3050000071525574
1040
228.0
1040
545.0
1040
14.0
1040
17.39999961853027
1040
0.4560000002384186
1002
}
1000

1002
}
  0
INSERT
  5
903
330
1F
100
AcDbEntity
  8
ASHADE
 62
     1
100
AcDbBlockReference
  2
AVE_RENDER
 10
0.0
 20
0.0
 30
0.0
1001
AVE_RENDER
1002
{
1070
     7
1000
Pref
1070
    50
1070
    20
1070
     1
1070
     0
1000

1070
    10
1070
     1
1070
    10
1040
1.0
1070
     1
1040
0.6999999880790711
1040
1.0
1040
0.2000000029802322
1040
2.0
1010
-1.0
1020
-1.0
1030
-1.0
1040
0.3000000119209289
1070
    49
1070
     0
1070
     0
1010
1.0
1020
1.0
1030
1.0
1040
45.0
1070
     1
1070
     0
1000
WCS
1040
0.0
1070
     0
1040
10.0
1002
}
  0
INSERT
  5
904
330
1F
100
AcDbEntity
  8
ASHADE
 62
     3
100
AcDbBlockReference
  2
AVE_RENDER
 10
0.0
 20
0.0
 30
0.0
1001
AVE_RENDER
1002
{
1070
     0
1000
Full Opt
1070
     0
1070
     1
1070
     1
1070
     1
1070
     0
1070
     0
1070
     0
1070
     1
1070
     1
1040
0.0001
1040
0.0001
1002
}
  0
INSERT
  5
905
330
1F
100
AcDbEntity
  8
ASHADE
 62
     4
100
AcDbBlockReference
  2
AVE_RENDER
 10
0.0
 20
0.0
 30
0.0
1001
AVE_RENDER
1002
{
1070
     0
1000
Quick Opt
1070
     0
1070
     1
1070
     1
1070
     1
1070
     0
1070
     0
1070
     1
1002
}
  0
INSERT
  5
906
330
1F
100
AcDbEntity
  8
ASHADE
 62
     5
100
AcDbBlockReference
  2
AVE_RENDER
 10
0.0
 20
0.0
 30
0.0
1001
AVE_RENDER
1002
{
1070
     1
1000
Scanl Opt
1070
     2
1070
     0
1070
     2
1040
2.0
1040
4.0
1070
     0
1070
     1
1070
     0
1040
0.03
1002
}
  0
INSERT
  5
907
330
1F
100
AcDbEntity
  8
ASHADE
 62
     6
100
AcDbBlockReference
  2
AVE_RENDER
 10
0.0
 20
0.0
 30
0.0
1001
AVE_RENDER
1002
{
1070
     2
1000
Raytr Opt
1070
     2
1070
     0
1070
     2
1040
2.0
1040
4.0
1070
     0
1070
     1
1070
     1
1040
0.03
1070
     3
1040
0.03
1002
}
  0
INSERT
  5
908
330
1F
100
AcDbEntity
  8
ASHADE
 62
     7
100
AcDbBlockReference
  2
AVE_RENDER
 10
0.0
 20
0.0
 30
0.0
1001
AVE_RENDER
1002
{
1070
     0
1000
RFile Opt
1070
     1
1070
   640
1070
   480
1070
 10000
1070
     1
1070
     8
1070
     8
1070
     0
1070
     0
1070
     0
1070
     0
1070
     0
1070
     0
1070
     0
1002
}
  0
INSERT
  5
909
330
1F
100
AcDbEntity
  8
ASHADE
 62
     8
100
AcDbBlockReference
  2
AVE_RENDER
 10
0.0
 20
0.0
 30
0.0
1001
AVE_RENDER
1002
{
1070
     0
1000
Fog Opt
1070
     0
1070
     0
1040
0.0
1040
1.0
1040
0.0
1040
1.0
1010
0.5
1020
0.5
1030
0.5
1002
}
  0
INSERT
  5
90A
330
1F
100
AcDbEntity
  8
ASHADE
 62
     9
100
AcDbBlockReference
  2
AVE_RENDER
 10
0.0
 20
0.0
 30
0.0
1001
AVE_RENDER
1002
{
1070
     0
1000
BG Opt
1070
     0
1070
     0
1010
0.0
1020
0.0
1030
0.0
1010
1.0
1020
0.0
1030
0.0
1010
0.0
1020
1.0
1030
0.0
1010
0.0
1020
0.0
1030
1.0
1040
0.5
1040
0.5
1040
0.0
1000

1070
     1
1000

1070
     1
1070
     1
1040
1.0
1040
1.0
1040
0.0
1040
0.0
1070
     0
1002
}
  0
POLYLINE
  5
1193
330
1F
100
AcDbEntity
  8
0
 62
     7
100
AcDbPolyFaceMesh
 66
     1
 10
0.0
 20
0.0
 30
0.0
 70
    64
 71
   344
 72
   684
1001
AVE_ENTITY_MATERIAL
1002
{
1000

1002
{
1071
        0
1070
     0
1070
     0
1002
{
1070
     0
1070
     0
1070
     0
1040
0.0
1002
}
1070
     0
1070
     0
1002
{
1002
}
1002
}
1002
{
1002
}
1002
{
1002
}
1011
-8.945273401361019
1021
0.0
1031
0.0000000014460149
1011
-7.945273401361019
1021
0.0
1031
0.0000000014460149
1011
-8.945273401361019
1021
1.0
1031
0.0000000014460149
1011
-8.945273401361019
1021
0.0
1031
1.000000001446014
1002
}
  0
VERTEX
  5
1194
330
1193
100
AcDbEntity
  8
0
 62
     7
100
AcDbVertex
100
AcDbPolyFaceMeshVertex
 10
0.024998662847965
 20
6.686799049377441
 30
0.1681505307114186
 70
   192
  0
VERTEX
  5
1195
330
1193
100
AcDbEntity
  8
0
 62
     7
100
AcDbVertex
100
AcDbPolyFaceMeshVertex
 10
0.0178756693787268
 20
6.624911785125732
 30
0.2279943987286153
 70
   192
  0
VERTEX
  5
1196
330
1193
100
AcDbEntity
  8
0
 62
     7
100
AcDbVertex
100
AcDbPolyFaceMeshVertex
 10
-0.000000002007992
 20
6.686799049377441
 30
0.260977269665009
 70
   192
  0
VERTEX
  5
1197
330
1193
100
AcDbEntity
  8
0
 62
     7
100
AcDbVertex
100
AcDbPolyFaceMeshVertex
 10
0.1913433054871252
 20
6.686799049377441
 30
0.5629845872080388
 70
   192
  0
VERTEX
  5
1198
330
1193
100
AcDbEntity
  8
0
 62
     7
100
AcDbVertex
100
AcDbPolyFaceMeshVertex
 10
0.1077709177918127
 20
6.686799049377441
 30
0.5153615489161077
 70
   192
  0
VERTEX
  5
1199
330
1193
100
AcDbEntity
  8
0
 62
     7
100
AcDbVertex
100
AcDbPolyFaceMeshVertex
 10
0.154510496038883
 20
6.656097888946532
 30
0.542775274769074
 70
   192
  0
VERTEX
  5
119A
330
1193
100
AcDbEntity
  8
0
 62
     7
100
AcDbVertex
100
AcDbPolyFaceMeshVertex
 10
0.0440950373596838
 20
6.686799049377441
 30
0.4441221370852056
 70
   192
  0
VERTEX
  5
119B
330
1193
100
AcDbEntity
  8
0
 62
     7
100
AcDbVertex
100
AcDbPolyFaceMeshVertex
 10
0.0662059763855627
 20
6.635942935943602
 30
0.4612205042994085
 70
   192
  0
VERTEX
  5
119C
330
1193
100
AcDbEntity
  8
0
 62
     7
100
AcDbVertex
100
AcDbPolyFaceMeshVertex
 10
0.0178756693787268
 20
6.624911785125732
 30
0.34987604762674
 70
   192
  0
VERTEX
  5
119D
330
1193
100
AcDbEntity
  8
0
 62
     7
100
AcDbVertex
100
AcDbPolyFaceMeshVertex
 10
0.1566553095764807
 20
6.686799049377441
 30
0.0305099334126773
 70
   192
  0
VERTEX
  5
119E
330
1193
100
AcDbEntity
  8
0
 62
     7
100
AcDbVertex
100
AcDbPolyFaceMeshVertex
 10
0.2473010996765765
 20
6.686799049377441
 30
0.0000000014460149
 70
   192
  0
VERTEX
  5
119F
330
1193
100
AcDbEntity
  8
0
 62
     7
100
AcDbVertex
100
AcDbPolyFaceMeshVertex
 10
0.154510496038883
 20
6.656097888946532
 30
0.0350951976633134
 70
   192
  0
VERTEX
  5
11A0
330
1193
100
AcDbEntity
  8
0
 62
     7
100
AcDbVertex
100
AcDbPolyFaceMeshVertex
 10
0.2545051554627111
 20
6.0712890625
 30
0.34987604762674
 70
   192
  0
VERTEX
  5
11A1
330
1193
100
AcDbEntity
  8
0
 62
     7
100
AcDbVertex
100
AcDbPolyFaceMeshVertex
 10
0.1112766245789203
 20
6.337451934814452
 30
0.34987604762674
 70
   192
  0
VERTEX
  5
11A2
330
1193
100
AcDbEntity
  8
0
 62
     7
100
AcDbVertex
100
AcDbPolyFaceMeshVertex
 10
0.1112766245789203
 20
6.337451934814452
 30
0.2279943987286153
 70
   192
  0
VERTEX
  5
11A3
330
1193
100
AcDbEntity
  8
0
 62
     7
100
AcDbVertex
100
AcDbPolyFaceMeshVertex
 10
0.3982992152161291
 20
6.185305118560791
 30
0.5629845872080388
 70
   192
  0
VERTEX
  5
11A4
330
1193
100
AcDbEntity
  8
0
 62
     7
100
AcDbVertex
100
AcDbPolyFaceMeshVertex
 10
0.3714704493469885
 20
6.148496627807617
 30
0.542775274769074
 70
   192
  0
VERTEX
  5
11A5
330
1193
100
AcDbEntity
  8
0
 62
     7
100
AcDbVertex
100
AcDbPolyFaceMeshVertex
 10
0.5660638789124164
 20
5.970723152160643
 30
0.5629845872080388
 70
   192
  0
VERTEX
  5
11A6
330
1193
100
AcDbEntity
  8
0
 62
     7
100
AcDbVertex
100
AcDbPolyFaceMeshVertex
 10
0.3337945918030432
 20
6.421014785766601
 30
0.000000001446015
 70
   192
  0
VERTEX
  5
11A7
330
1193
100
AcDbEntity
  8
0
 62
     7
100
AcDbVertex
100
AcDbPolyFaceMeshVertex
 10
0.4697236994690588
 20
6.176789760589598
 30
0.0000000014460151
 70
   192
  0
VERTEX
  5
11A8
330
1193
100
AcDbEntity
  8
0
 62
     7
100
AcDbVertex
100
AcDbPolyFaceMeshVertex
 10
0.3714704493469885
 20
6.148496627807617
 30
0.0350951976633134
 70
   192
  0
VERTEX
  5
11A9
330
1193
100
AcDbEntity
  8
0
 62
     7
100
AcDbVertex
100
AcDbPolyFaceMeshVertex
 10
0.2545051554627111
 20
6.0712890625
 30
0.2279943987286153
 70
   192
  0
VERTEX
  5
11AA
330
1193
100
AcDbEntity
  8
0
 62
     7
100
AcDbVertex
100
AcDbPolyFaceMeshVertex
 10
0.1568613032288244
 20
6.356935501098632
 30
0.1166499495065274
 70
   192
  0
VERTEX
  5
11AB
330
1193
100
AcDbEntity
  8
0
 62
     7
100
AcDbVertex
100
AcDbPolyFaceMeshVertex
 10
0.2958784083313635
 20
6.098598957061767
 30
0.4612205042994085
 70
   192
  0
VERTEX
  5
11AC
330
1193
100
AcDbEntity
  8
0
 62
     7
100
AcDbVertex
100
AcDbPolyFaceMeshVertex
 10
0.4787883738465002
 20
5.869236469268797
 30
0.4612205042994085
 70
   192
  0
VERTEX
  5
11AD
330
1193
100
AcDbEntity
  8
0
 62
     7
100
AcDbVertex
100
AcDbPolyFaceMeshVertex
 10
0.2958784083313635
 20
6.098598957061767
 30
0.1166499495065274
 70
   192
  0
VERTEX
  5
11AE
330
1193
100
AcDbEntity
  8
0
 62
     7
100
AcDbVertex
100
AcDbPolyFaceMeshVertex
 10
0.4429569224304846
 20
5.834977626800537
 30
0.2279943987286153
 70
   192
  0
VERTEX
  5
11AF
330
1193
100
AcDbEntity
  8
0
 62
     7
100
AcDbVertex
100
AcDbPolyFaceMeshVertex
 10
0.4429569224304846
 20
5.834977626800537
 30
0.34987604762674
 70
   192
  0
VERTEX
  5
11B0
330
1193
100
AcDbEntity
  8
0
 62
     7
100
AcDbVertex
100
AcDbPolyFaceMeshVertex
 10
0.6997137049622229
 20
5.676219463348387
 30
0.4612205042994085
 70
   192
  0
VERTEX
  5
11B1
330
1193
100
AcDbEntity
  8
0
 62
     7
100
AcDbVertex
100
AcDbPolyFaceMeshVertex
 10
0.7697973231262854
 20
5.789937496185302
 30
0.5629845872080388
 70
   192
  0
VERTEX
  5
11B2
330
1193
100
AcDbEntity
  8
0
 62
     7
100
AcDbVertex
100
AcDbPolyFaceMeshVertex
 10
0.7529535273499164
 20
5.749496936798094
 30
0.542775274769074
 70
   192
  0
VERTEX
  5
11B3
330
1193
100
AcDbEntity
  8
0
 62
     7
100
AcDbVertex
100
AcDbPolyFaceMeshVertex
 10
1.002808568853824
 20
5.648884296417236
 30
0.5629845872080388
 70
   192
  0
VERTEX
  5
11B4
330
1193
100
AcDbEntity
  8
0
 62
     7
100
AcDbVertex
100
AcDbPolyFaceMeshVertex
 10
0.6500282267517737
 20
5.963218212127684
 30
0.0000000014460151
 70
   192
  0
VERTEX
  5
11B5
330
1193
100
AcDbEntity
  8
0
 62
     7
100
AcDbVertex
100
AcDbPolyFaceMeshVertex
 10
0.8679933527893712
 20
5.788250923156737
 30
0.0000000014460151
 70
   192
  0
VERTEX
  5
11B6
330
1193
100
AcDbEntity
  8
0
 62
     7
100
AcDbVertex
100
AcDbPolyFaceMeshVertex
 10
0.7529535273499164
 20
5.749496936798094
 30
0.0350951976633134
 70
   192
  0
VERTEX
  5
11B7
330
1193
100
AcDbEntity
  8
0
 62
     7
100
AcDbVertex
100
AcDbPolyFaceMeshVertex
 10
0.4787883738465002
 20
5.869236469268797
 30
0.1166499495065274
 70
   192
  0
VERTEX
  5
11B8
330
1193
100
AcDbEntity
  8
0
 62
     7
100
AcDbVertex
100
AcDbPolyFaceMeshVertex
 10
0.6705751398987445
 20
5.63611364364624
 30
0.2279943987286153
 70
   192
  0
VERTEX
  5
11B9
330
1193
100
AcDbEntity
  8
0
 62
     7
100
AcDbVertex
100
AcDbPolyFaceMeshVertex
 10
0.6705751398987445
 20
5.63611364364624
 30
0.34987604762674
 70
   192
  0
VERTEX
  5
11BA
330
1193
100
AcDbEntity
  8
0
 62
     7
100
AcDbVertex
100
AcDbPolyFaceMeshVertex
 10
0.9515533427185687
 20
5.525752544403076
 30
0.4612205042994085
 70
   192
  0
VERTEX
  5
11BB
330
1193
100
AcDbEntity
  8
0
 62
     7
100
AcDbVertex
100
AcDbPolyFaceMeshVertex
 10
0.6997137049622229
 20
5.676219463348387
 30
0.1166499495065274
 70
   192
  0
VERTEX
  5
11BC
330
1193
100
AcDbEntity
  8
0
 62
     7
100
AcDbVertex
100
AcDbPolyFaceMeshVertex
 10
0.9300441721863439
 20
5.481088161468504
 30
0.2279943987286153
 70
   192
  0
VERTEX
  5
11BD
330
1193
100
AcDbEntity
  8
0
 62
     7
100
AcDbVertex
100
AcDbPolyFaceMeshVertex
 10
0.9300441721863439
 20
5.481088161468504
 30
0.34987604762674
 70
   192
  0
VERTEX
  5
11BE
330
1193
100
AcDbEntity
  8
0
 62
     7
100
AcDbVertex
100
AcDbPolyFaceMeshVertex
 10
1.226212499517881
 20
5.422671318054199
 30
0.4612205042994085
 70
   192
  0
VERTEX
  5
11BF
330
1193
100
AcDbEntity
  8
0
 62
     7
100
AcDbVertex
100
AcDbPolyFaceMeshVertex
 10
1.115505216497862
 20
5.658402919769287
 30
0.0000000014460151
 70
   192
  0
VERTEX
  5
11C0
330
1193
100
AcDbEntity
  8
0
 62
     7
100
AcDbVertex
100
AcDbPolyFaceMeshVertex
 10
1.383346555609191
 20
5.578508377075195
 30
0.0000000014460152
 70
   192
  0
VERTEX
  5
11C1
330
1193
100
AcDbEntity
  8
0
 62
     7
100
AcDbVertex
100
AcDbPolyFaceMeshVertex
 10
1.25030898847052
 20
5.509982585906981
 30
0.0350951976633134
 70
   192
  0
VERTEX
  5
11C2
330
1193
100
AcDbEntity
  8
0
 62
     7
100
AcDbVertex
100
AcDbPolyFaceMeshVertex
 10
1.509680745977849
 20
5.320981025695799
 30
0.2279943987286153
 70
   192
  0
VERTEX
  5
11C3
330
1193
100
AcDbEntity
  8
0
 62
     7
100
AcDbVertex
100
AcDbPolyFaceMeshVertex
 10
1.213024137396301
 20
5.374883651733398
 30
0.2279943987286153
 70
   192
  0
VERTEX
  5
11C4
330
1193
100
AcDbEntity
  8
0
 62
     7
100
AcDbVertex
100
AcDbPolyFaceMeshVertex
 10
1.226212499517881
 20
5.422671318054199
 30
0.1166499495065274
 70
   192
  0
VERTEX
  5
11C5
330
1193
100
AcDbEntity
  8
0
 62
     7
100
AcDbVertex
100
AcDbPolyFaceMeshVertex
 10
0.9515533427185687
 20
5.525752544403076
 30
0.1166499495065274
 70
   192
  0
VERTEX
  5
11C6
330
1193
100
AcDbEntity
  8
0
 62
     7
100
AcDbVertex
100
AcDbPolyFaceMeshVertex
 10
1.213024137396301
 20
5.374883651733398
 30
0.34987604762674
 70
   192
  0
VERTEX
  5
11C7
330
1193
100
AcDbEntity
  8
0
 62
     7
100
AcDbVertex
100
AcDbPolyFaceMeshVertex
 10
1.25030898847052
 20
5.509982585906981
 30
0.542775274769074
 70
   192
  0
VERTEX
  5
11C8
330
1193
100
AcDbEntity
  8
0
 62
     7
100
AcDbVertex
100
AcDbPolyFaceMeshVertex
 10
1.513642309088201
 20
5.370398998260498
 30
0.4612205042994085
 70
   192
  0
VERTEX
  5
11C9
330
1193
100
AcDbEntity
  8
0
 62
     7
100
AcDbVertex
100
AcDbPolyFaceMeshVertex
 10
1.939746854681461
 20
5.578508377075195
 30
0.0000000014460152
 70
   192
  0
VERTEX
  5
11CA
330
1193
100
AcDbEntity
  8
0
 62
     7
100
AcDbVertex
100
AcDbPolyFaceMeshVertex
 10
1.80031204022833
 20
5.460517883300781
 30
0.0350951976633134
 70
   192
  0
VERTEX
  5
11CB
330
1193
100
AcDbEntity
  8
0
 62
     7
100
AcDbVertex
100
AcDbPolyFaceMeshVertex
 10
1.661546705145319
 20
5.551541805267333
 30
0.0000000014460152
 70
   192
  0
VERTEX
  5
11CC
330
1193
100
AcDbEntity
  8
0
 62
     7
100
AcDbVertex
100
AcDbPolyFaceMeshVertex
 10
1.514398572821111
 20
5.370330810546875
 30
0.1166499495065274
 70
   192
  0
VERTEX
  5
11CD
330
1193
100
AcDbEntity
  8
0
 62
     7
100
AcDbVertex
100
AcDbPolyFaceMeshVertex
 10
1.509421346563781
 20
5.32100486755371
 30
0.34987604762674
 70
   192
  0
VERTEX
  5
11CE
330
1193
100
AcDbEntity
  8
0
 62
     7
100
AcDbVertex
100
AcDbPolyFaceMeshVertex
 10
1.81367301740118
 20
5.32100486755371
 30
0.34987604762674
 70
   192
  0
VERTEX
  5
11CF
330
1193
100
AcDbEntity
  8
0
 62
     7
100
AcDbVertex
100
AcDbPolyFaceMeshVertex
 10
1.81341266431281
 20
5.320981025695799
 30
0.2279943987286153
 70
   192
  0
VERTEX
  5
11D0
330
1193
100
AcDbEntity
  8
0
 62
     7
100
AcDbVertex
100
AcDbPolyFaceMeshVertex
 10
1.257449148077451
 20
5.552194595336914
 30
0.5629845872080388
 70
   192
  0
VERTEX
  5
11D1
330
1193
100
AcDbEntity
  8
0
 62
     7
100
AcDbVertex
100
AcDbPolyFaceMeshVertex
 10
1.52535724439093
 20
5.503042697906494
 30
0.5629845872080388
 70
   192
  0
VERTEX
  5
11D2
330
1193
100
AcDbEntity
  8
0
 62
     7
100
AcDbVertex
100
AcDbPolyFaceMeshVertex
 10
1.809452054876768
 20
5.370398998260498
 30
0.4612205042994085
 70
   192
  0
VERTEX
  5
11D3
330
1193
100
AcDbEntity
  8
0
 62
     7
100
AcDbVertex
100
AcDbPolyFaceMeshVertex
 10
2.110069272894349
 20
5.374883651733398
 30
0.34987604762674
 70
   192
  0
VERTEX
  5
11D4
330
1193
100
AcDbEntity
  8
0
 62
     7
100
AcDbVertex
100
AcDbPolyFaceMeshVertex
 10
1.80150317944952
 20
5.460625648498535
 30
0.542775274769074
 70
   192
  0
VERTEX
  5
11D5
330
1193
100
AcDbEntity
  8
0
 62
     7
100
AcDbVertex
100
AcDbPolyFaceMeshVertex
 10
1.808695791143861
 20
5.370330810546875
 30
0.1166499495065274
 70
   192
  0
VERTEX
  5
11D6
330
1193
100
AcDbEntity
  8
0
 62
     7
100
AcDbVertex
100
AcDbPolyFaceMeshVertex
 10
2.096880910772769
 20
5.422671318054199
 30
0.1166499495065274
 70
   192
  0
VERTEX
  5
11D7
330
1193
100
AcDbEntity
  8
0
 62
     7
100
AcDbVertex
100
AcDbPolyFaceMeshVertex
 10
2.110069272894349
 20
5.374883651733398
 30
0.2279943987286153
 70
   192
  0
VERTEX
  5
11D8
330
1193
100
AcDbEntity
  8
0
 62
     7
100
AcDbVertex
100
AcDbPolyFaceMeshVertex
 10
2.39304923810431
 20
5.481088161468504
 30
0.34987604762674
 70
   192
  0
VERTEX
  5
11D9
330
1193
100
AcDbEntity
  8
0
 62
     7
100
AcDbVertex
100
AcDbPolyFaceMeshVertex
 10
1.797737119574041
 20
5.503042697906494
 30
0.5629845872080388
 70
   192
  0
VERTEX
  5
11DA
330
1193
100
AcDbEntity
  8
0
 62
     7
100
AcDbVertex
100
AcDbPolyFaceMeshVertex
 10
2.072784421820131
 20
5.509982585906981
 30
0.542775274769074
 70
   192
  0
VERTEX
  5
11DB
330
1193
100
AcDbEntity
  8
0
 62
     7
100
AcDbVertex
100
AcDbPolyFaceMeshVertex
 10
2.065644262213201
 20
5.552194595336914
 30
0.5629845872080388
 70
   192
  0
VERTEX
  5
11DC
330
1193
100
AcDbEntity
  8
0
 62
     7
100
AcDbVertex
100
AcDbPolyFaceMeshVertex
 10
2.2075891474671
 20
5.658402919769287
 30
0.0000000014460151
 70
   192
  0
VERTEX
  5
11DD
330
1193
100
AcDbEntity
  8
0
 62
     7
100
AcDbVertex
100
AcDbPolyFaceMeshVertex
 10
2.45510005750128
 20
5.788250923156737
 30
0.0000000014460151
 70
   192
  0
VERTEX
  5
11DE
330
1193
100
AcDbEntity
  8
0
 62
     7
100
AcDbVertex
100
AcDbPolyFaceMeshVertex
 10
2.332241056341612
 20
5.607358455657958
 30
0.0350951976633134
 70
   192
  0
VERTEX
  5
11DF
330
1193
100
AcDbEntity
  8
0
 62
     7
100
AcDbVertex
100
AcDbPolyFaceMeshVertex
 10
2.39304923810431
 20
5.481088161468504
 30
0.2279943987286153
 70
   192
  0
VERTEX
  5
11E0
330
1193
100
AcDbEntity
  8
0
 62
     7
100
AcDbVertex
100
AcDbPolyFaceMeshVertex
 10
2.37154006757208
 20
5.525752544403076
 30
0.4612205042994085
 70
   192
  0
VERTEX
  5
11E1
330
1193
100
AcDbEntity
  8
0
 62
     7
100
AcDbVertex
100
AcDbPolyFaceMeshVertex
 10
2.623379705328428
 20
5.676219463348387
 30
0.4612205042994085
 70
   192
  0
VERTEX
  5
11E2
330
1193
100
AcDbEntity
  8
0
 62
     7
100
AcDbVertex
100
AcDbPolyFaceMeshVertex
 10
2.32028484143683
 20
5.648884296417236
 30
0.5629845872080388
 70
   192
  0
VERTEX
  5
11E3
330
1193
100
AcDbEntity
  8
0
 62
     7
100
AcDbVertex
100
AcDbPolyFaceMeshVertex
 10
2.570140836615049
 20
5.749496936798094
 30
0.542775274769074
 70
   192
  0
VERTEX
  5
11E4
330
1193
100
AcDbEntity
  8
0
 62
     7
100
AcDbVertex
100
AcDbPolyFaceMeshVertex
 10
2.55329704083868
 20
5.789937496185302
 30
0.5629845872080388
 70
   192
  0
VERTEX
  5
11E5
330
1193
100
AcDbEntity
  8
0
 62
     7
100
AcDbVertex
100
AcDbPolyFaceMeshVertex
 10
2.37154006757208
 20
5.525752544403076
 30
0.1166499495065274
 70
   192
  0
VERTEX
  5
11E6
330
1193
100
AcDbEntity
  8
0
 62
     7
100
AcDbVertex
100
AcDbPolyFaceMeshVertex
 10
2.65251827039191
 20
5.63611364364624
 30
0.2279943987286153
 70
   192
  0
VERTEX
  5
11E7
330
1193
100
AcDbEntity
  8
0
 62
     7
100
AcDbVertex
100
AcDbPolyFaceMeshVertex
 10
2.65251827039191
 20
5.63611364364624
 30
0.34987604762674
 70
   192
  0
VERTEX
  5
11E8
330
1193
100
AcDbEntity
  8
0
 62
     7
100
AcDbVertex
100
AcDbPolyFaceMeshVertex
 10
2.844305036444151
 20
5.869236469268797
 30
0.4612205042994085
 70
   192
  0
VERTEX
  5
11E9
330
1193
100
AcDbEntity
  8
0
 62
     7
100
AcDbVertex
100
AcDbPolyFaceMeshVertex
 10
2.673066137213201
 20
5.963218212127684
 30
0.0000000014460151
 70
   192
  0
VERTEX
  5
11EA
330
1193
100
AcDbEntity
  8
0
 62
     7
100
AcDbVertex
100
AcDbPolyFaceMeshVertex
 10
2.853369710821599
 20
6.176789760589598
 30
0.0000000014460151
 70
   192
  0
VERTEX
  5
11EB
330
1193
100
AcDbEntity
  8
0
 62
     7
100
AcDbVertex
100
AcDbPolyFaceMeshVertex
 10
2.7788372019715
 20
5.931829929351806
 30
0.0350951976633134
 70
   192
  0
VERTEX
  5
11EC
330
1193
100
AcDbEntity
  8
0
 62
     7
100
AcDbVertex
100
AcDbPolyFaceMeshVertex
 10
3.06858825482794
 20
6.0712890625
 30
0.2279943987286153
 70
   192
  0
VERTEX
  5
11ED
330
1193
100
AcDbEntity
  8
0
 62
     7
100
AcDbVertex
100
AcDbPolyFaceMeshVertex
 10
2.88013648786017
 20
5.834977626800537
 30
0.2279943987286153
 70
   192
  0
VERTEX
  5
11EE
330
1193
100
AcDbEntity
  8
0
 62
     7
100
AcDbVertex
100
AcDbPolyFaceMeshVertex
 10
2.844305036444151
 20
5.869236469268797
 30
0.1166499495065274
 70
   192
  0
VERTEX
  5
11EF
330
1193
100
AcDbEntity
  8
0
 62
     7
100
AcDbVertex
100
AcDbPolyFaceMeshVertex
 10
2.623379705328428
 20
5.676219463348387
 30
0.1166499495065274
 70
   192
  0
VERTEX
  5
11F0
330
1193
100
AcDbEntity
  8
0
 62
     7
100
AcDbVertex
100
AcDbPolyFaceMeshVertex
 10
2.88013648786017
 20
5.834977626800537
 30
0.34987604762674
 70
   192
  0
VERTEX
  5
11F1
330
1193
100
AcDbEntity
  8
0
 62
     7
100
AcDbVertex
100
AcDbPolyFaceMeshVertex
 10
3.027215955633611
 20
6.098598957061767
 30
0.4612205042994085
 70
   192
  0
VERTEX
  5
11F2
330
1193
100
AcDbEntity
  8
0
 62
     7
100
AcDbVertex
100
AcDbPolyFaceMeshVertex
 10
2.75702953137824
 20
5.970723152160643
 30
0.5629845872080388
 70
   192
  0
VERTEX
  5
11F3
330
1193
100
AcDbEntity
  8
0
 62
     7
100
AcDbVertex
100
AcDbPolyFaceMeshVertex
 10
2.951623914617979
 20
6.148496627807617
 30
0.542775274769074
 70
   192
  0
VERTEX
  5
11F4
330
1193
100
AcDbEntity
  8
0
 62
     7
100
AcDbVertex
100
AcDbPolyFaceMeshVertex
 10
2.924795148748838
 20
6.185305118560791
 30
0.5629845872080388
 70
   192
  0
VERTEX
  5
11F5
330
1193
100
AcDbEntity
  8
0
 62
     7
100
AcDbVertex
100
AcDbPolyFaceMeshVertex
 10
3.027215955633611
 20
6.098598957061767
 30
0.1166499495065274
 70
   192
  0
VERTEX
  5
11F6
330
1193
100
AcDbEntity
  8
0
 62
     7
100
AcDbVertex
100
AcDbPolyFaceMeshVertex
 10
3.06858825482794
 20
6.0712890625
 30
0.34987604762674
 70
   192
  0
VERTEX
  5
11F7
330
1193
100
AcDbEntity
  8
0
 62
     7
100
AcDbVertex
100
AcDbPolyFaceMeshVertex
 10
3.16623306073615
 20
6.356935501098632
 30
0.4612205042994085
 70
   192
  0
VERTEX
  5
11F8
330
1193
100
AcDbEntity
  8
0
 62
     7
100
AcDbVertex
100
AcDbPolyFaceMeshVertex
 10
3.131750104803531
 20
6.686799049377441
 30
0.5629845872080388
 70
   192
  0
VERTEX
  5
11F9
330
1193
100
AcDbEntity
  8
0
 62
     7
100
AcDbVertex
100
AcDbPolyFaceMeshVertex
 10
3.051083562750301
 20
6.426638126373291
 30
0.5629845872080388
 70
   192
  0
VERTEX
  5
11FA
330
1193
100
AcDbEntity
  8
0
 62
     7
100
AcDbVertex
100
AcDbPolyFaceMeshVertex
 10
3.168582914251768
 20
6.656097888946532
 30
0.542775274769074
 70
   192
  0
VERTEX
  5
11FB
330
1193
100
AcDbEntity
  8
0
 62
     7
100
AcDbVertex
100
AcDbPolyFaceMeshVertex
 10
3.211816785711729
 20
6.337451934814452
 30
0.34987604762674
 70
   192
  0
VERTEX
  5
11FC
330
1193
100
AcDbEntity
  8
0
 62
     7
100
AcDbVertex
100
AcDbPolyFaceMeshVertex
 10
3.082945821661441
 20
6.392533779144287
 30
0.0350951976633134
 70
   192
  0
VERTEX
  5
11FD
330
1193
100
AcDbEntity
  8
0
 62
     7
100
AcDbVertex
100
AcDbPolyFaceMeshVertex
 10
3.256887433905088
 20
6.635942935943602
 30
0.1166499495065274
 70
   192
  0
VERTEX
  5
11FE
330
1193
100
AcDbEntity
  8
0
 62
     7
100
AcDbVertex
100
AcDbPolyFaceMeshVertex
 10
3.16623306073615
 20
6.356935501098632
 30
0.1166499495065274
 70
   192
  0
VERTEX
  5
11FF
330
1193
100
AcDbEntity
  8
0
 62
     7
100
AcDbVertex
100
AcDbPolyFaceMeshVertex
 10
3.243558881659
 20
6.686799049377441
 30
0.0881363465941015
 70
   192
  0
VERTEX
  5
1200
330
1193
100
AcDbEntity
  8
0
 62
     7
100
AcDbVertex
100
AcDbPolyFaceMeshVertex
 10
3.298094747442691
 20
6.686799049377441
 30
0.1681505307114186
 70
   192
  0
VERTEX
  5
1201
330
1193
100
AcDbEntity
  8
0
 62
     7
100
AcDbVertex
100
AcDbPolyFaceMeshVertex
 10
3.211816785711729
 20
6.337451934814452
 30
0.2279943987286153
 70
   192
  0
VERTEX
  5
1202
330
1193
100
AcDbEntity
  8
0
 62
     7
100
AcDbVertex
100
AcDbPolyFaceMeshVertex
 10
3.30521869458624
 20
6.624911785125732
 30
0.34987604762674
 70
   192
  0
VERTEX
  5
1203
330
1193
100
AcDbEntity
  8
0
 62
     7
100
AcDbVertex
100
AcDbPolyFaceMeshVertex
 10
3.316325185675111
 20
6.686799049377441
 30
0.3563389494574132
 70
   192
  0
VERTEX
  5
1204
330
1193
100
AcDbEntity
  8
0
 62
     7
100
AcDbVertex
100
AcDbPolyFaceMeshVertex
 10
3.278998372930971
 20
6.686799049377441
 30
0.4441221370852056
 70
   192
  0
VERTEX
  5
1205
330
1193
100
AcDbEntity
  8
0
 62
     7
100
AcDbVertex
100
AcDbPolyFaceMeshVertex
 10
2.096880910772769
 20
5.422671318054199
 30
0.4612205042994085
 70
   192
  0
VERTEX
  5
1206
330
1193
100
AcDbEntity
  8
0
 62
     7
100
AcDbVertex
100
AcDbPolyFaceMeshVertex
 10
2.989299772161929
 20
6.421014785766601
 30
0.000000001446015
 70
   192
  0
VERTEX
  5
1207
330
1193
100
AcDbEntity
  8
0
 62
     7
100
AcDbVertex
100
AcDbPolyFaceMeshVertex
 10
3.075793264288389
 20
6.686799049377441
 30
0.0000000014460149
 70
   192
  0
VERTEX
  5
1208
330
1193
100
AcDbEntity
  8
0
 62
     7
100
AcDbVertex
100
AcDbPolyFaceMeshVertex
 10
2.951623914617979
 20
6.148496627807617
 30
0.0350951976633134
 70
   192
  0
VERTEX
  5
1209
330
1193
100
AcDbEntity
  8
0
 62
     7
100
AcDbVertex
100
AcDbPolyFaceMeshVertex
 10
2.570140836615049
 20
5.749496936798094
 30
0.0350951976633134
 70
   192
  0
VERTEX
  5
120A
330
1193
100
AcDbEntity
  8
0
 62
     7
100
AcDbVertex
100
AcDbPolyFaceMeshVertex
 10
2.072784421820131
 20
5.509982585906981
 30
0.0350951976633134
 70
   192
  0
VERTEX
  5
120B
330
1193
100
AcDbEntity
  8
0
 62
     7
100
AcDbVertex
100
AcDbPolyFaceMeshVertex
 10
1.52278137006232
 20
5.460517883300781
 30
0.0350951976633134
 70
   192
  0
VERTEX
  5
120C
330
1193
100
AcDbEntity
  8
0
 62
     7
100
AcDbVertex
100
AcDbPolyFaceMeshVertex
 10
0.9908523539490374
 20
5.607358455657958
 30
0.0350951976633134
 70
   192
  0
VERTEX
  5
120D
330
1193
100
AcDbEntity
  8
0
 62
     7
100
AcDbVertex
100
AcDbPolyFaceMeshVertex
 10
0.5442562083191565
 20
5.931829929351806
 30
0.0350951976633134
 70
   192
  0
VERTEX
  5
120E
330
1193
100
AcDbEntity
  8
0
 62
     7
100
AcDbVertex
100
AcDbPolyFaceMeshVertex
 10
0.240147588629215
 20
6.392533779144287
 30
0.0350951976633134
 70
   192
  0
VERTEX
  5
120F
330
1193
100
AcDbEntity
  8
0
 62
     7
100
AcDbVertex
100
AcDbPolyFaceMeshVertex
 10
0.0795354823059729
 20
6.686799049377441
 30
0.0881363465941015
 70
   192
  0
VERTEX
  5
1210
330
1193
100
AcDbEntity
  8
0
 62
     7
100
AcDbVertex
100
AcDbPolyFaceMeshVertex
 10
0.0662059763855627
 20
6.635942935943602
 30
0.1166499495065274
 70
   192
  0
VERTEX
  5
1211
330
1193
100
AcDbEntity
  8
0
 62
     7
100
AcDbVertex
100
AcDbPolyFaceMeshVertex
 10
0.0067682246155432
 20
6.686799049377441
 30
0.3563389494574132
 70
   192
  0
VERTEX
  5
1212
330
1193
100
AcDbEntity
  8
0
 62
     7
100
AcDbVertex
100
AcDbPolyFaceMeshVertex
 10
0.1568613032288244
 20
6.356935501098632
 30
0.4612205042994085
 70
   192
  0
VERTEX
  5
1213
330
1193
100
AcDbEntity
  8
0
 62
     7
100
AcDbVertex
100
AcDbPolyFaceMeshVertex
 10
0.2720098475403478
 20
6.426638126373291
 30
0.5629845872080388
 70
   192
  0
VERTEX
  5
1214
330
1193
100
AcDbEntity
  8
0
 62
     7
100
AcDbVertex
100
AcDbPolyFaceMeshVertex
 10
0.240147588629215
 20
6.392533779144287
 30
0.542775274769074
 70
   192
  0
VERTEX
  5
1215
330
1193
100
AcDbEntity
  8
0
 62
     7
100
AcDbVertex
100
AcDbPolyFaceMeshVertex
 10
0.5442562083191565
 20
5.931829929351806
 30
0.542775274769074
 70
   192
  0
VERTEX
  5
1216
330
1193
100
AcDbEntity
  8
0
 62
     7
100
AcDbVertex
100
AcDbPolyFaceMeshVertex
 10
0.9908523539490374
 20
5.607358455657958
 30
0.542775274769074
 70
   192
  0
VERTEX
  5
1217
330
1193
100
AcDbEntity
  8
0
 62
     7
100
AcDbVertex
100
AcDbPolyFaceMeshVertex
 10
1.52159023084113
 20
5.460625648498535
 30
0.542775274769074
 70
   192
  0
VERTEX
  5
1218
330
1193
100
AcDbEntity
  8
0
 62
     7
100
AcDbVertex
100
AcDbPolyFaceMeshVertex
 10
2.332241056341612
 20
5.607358455657958
 30
0.542775274769074
 70
   192
  0
VERTEX
  5
1219
330
1193
100
AcDbEntity
  8
0
 62
     7
100
AcDbVertex
100
AcDbPolyFaceMeshVertex
 10
2.7788372019715
 20
5.931829929351806
 30
0.542775274769074
 70
   192
  0
VERTEX
  5
121A
330
1193
100
AcDbEntity
  8
0
 62
     7
100
AcDbVertex
100
AcDbPolyFaceMeshVertex
 10
3.082945821661441
 20
6.392533779144287
 30
0.542775274769074
 70
   192
  0
VERTEX
  5
121B
330
1193
100
AcDbEntity
  8
0
 62
     7
100
AcDbVertex
100
AcDbPolyFaceMeshVertex
 10
3.215322492498838
 20
6.686799049377441
 30
0.5153615489161077
 70
   192
  0
VERTEX
  5
121C
330
1193
100
AcDbEntity
  8
0
 62
     7
100
AcDbVertex
100
AcDbPolyFaceMeshVertex
 10
3.256887433905088
 20
6.635942935943602
 30
0.4612205042994085
 70
   192
  0
VERTEX
  5
121D
330
1193
100
AcDbEntity
  8
0
 62
     7
100
AcDbVertex
100
AcDbPolyFaceMeshVertex
 10
3.323094365972959
 20
6.686799049377441
 30
0.260977269665009
 70
   192
  0
VERTEX
  5
121E
330
1193
100
AcDbEntity
  8
0
 62
     7
100
AcDbVertex
100
AcDbPolyFaceMeshVertex
 10
3.30521869458624
 20
6.624911785125732
 30
0.2279943987286153
 70
   192
  0
VERTEX
  5
121F
330
1193
100
AcDbEntity
  8
0
 62
     7
100
AcDbVertex
100
AcDbPolyFaceMeshVertex
 10
3.168582914251768
 20
6.656097888946532
 30
0.0350951976633134
 70
   192
  0
VERTEX
  5
1220
330
1193
100
AcDbEntity
  8
0
 62
     7
100
AcDbVertex
100
AcDbPolyFaceMeshVertex
 10
3.16643810071417
 20
6.686799049377441
 30
0.0305099334126773
 70
   192
  0
VERTEX
  5
1221
330
1193
100
AcDbEntity
  8
0
 62
     7
100
AcDbVertex
100
AcDbPolyFaceMeshVertex
 10
2.75702953137824
 20
5.970723152160643
 30
0.6421234622156683
 70
   192
  0
VERTEX
  5
1222
330
1193
100
AcDbEntity
  8
0
 62
     7
100
AcDbVertex
100
AcDbPolyFaceMeshVertex
 10
2.55329704083868
 20
5.789937496185302
 30
0.6421234622156683
 70
   192
  0
VERTEX
  5
1223
330
1193
100
AcDbEntity
  8
0
 62
     7
100
AcDbVertex
100
AcDbPolyFaceMeshVertex
 10
3.051083562750301
 20
6.426638126373291
 30
0.6421234622156683
 70
   192
  0
VERTEX
  5
1224
330
1193
100
AcDbEntity
  8
0
 62
     7
100
AcDbVertex
100
AcDbPolyFaceMeshVertex
 10
2.065644262213201
 20
5.552194595336914
 30
0.6421234622156683
 70
   192
  0
VERTEX
  5
1225
330
1193
100
AcDbEntity
  8
0
 62
     7
100
AcDbVertex
100
AcDbPolyFaceMeshVertex
 10
2.32028484143683
 20
5.648884296417236
 30
0.6421234622156683
 70
   192
  0
VERTEX
  5
1226
330
1193
100
AcDbEntity
  8
0
 62
     7
100
AcDbVertex
100
AcDbPolyFaceMeshVertex
 10
1.52535724439093
 20
5.503042697906494
 30
0.6421234622156683
 70
   192
  0
VERTEX
  5
1227
330
1193
100
AcDbEntity
  8
0
 62
     7
100
AcDbVertex
100
AcDbPolyFaceMeshVertex
 10
1.797737119574041
 20
5.503042697906494
 30
0.6421234622156683
 70
   192
  0
VERTEX
  5
1228
330
1193
100
AcDbEntity
  8
0
 62
     7
100
AcDbVertex
100
AcDbPolyFaceMeshVertex
 10
1.002808568853824
 20
5.648884296417236
 30
0.6421234622156683
 70
   192
  0
VERTEX
  5
1229
330
1193
100
AcDbEntity
  8
0
 62
     7
100
AcDbVertex
100
AcDbPolyFaceMeshVertex
 10
1.257449148077451
 20
5.552194595336914
 30
0.6421234622156683
 70
   192
  0
VERTEX
  5
122A
330
1193
100
AcDbEntity
  8
0
 62
     7
100
AcDbVertex
100
AcDbPolyFaceMeshVertex
 10
0.5660638789124164
 20
5.970723152160643
 30
0.6421234622156683
 70
   192
  0
VERTEX
  5
122B
330
1193
100
AcDbEntity
  8
0
 62
     7
100
AcDbVertex
100
AcDbPolyFaceMeshVertex
 10
0.7697973231262854
 20
5.789937496185302
 30
0.6421234622156683
 70
   192
  0
VERTEX
  5
122C
330
1193
100
AcDbEntity
  8
0
 62
     7
100
AcDbVertex
100
AcDbPolyFaceMeshVertex
 10
0.2720098475403478
 20
6.426638126373291
 30
0.6421234622156683
 70
   192
  0
VERTEX
  5
122D
330
1193
100
AcDbEntity
  8
0
 62
     7
100
AcDbVertex
100
AcDbPolyFaceMeshVertex
 10
0.3982992152161291
 20
6.185305118560791
 30
0.6421234622156683
 70
   192
  0
VERTEX
  5
122E
330
1193
100
AcDbEntity
  8
0
 62
     7
100
AcDbVertex
100
AcDbPolyFaceMeshVertex
 10
0.1913433054871252
 20
6.686799049377441
 30
0.6421234622156683
 70
   192
  0
VERTEX
  5
122F
330
1193
100
AcDbEntity
  8
0
 62
     7
100
AcDbVertex
100
AcDbPolyFaceMeshVertex
 10
2.924795148748838
 20
6.185305118560791
 30
0.6421234622156683
 70
   192
  0
VERTEX
  5
1230
330
1193
100
AcDbEntity
  8
0
 62
     7
100
AcDbVertex
100
AcDbPolyFaceMeshVertex
 10
3.131750104803531
 20
6.686799049377441
 30
0.6421234622156683
 70
   192
  0
VERTEX
  5
1231
330
1193
100
AcDbEntity
  8
0
 62
     7
100
AcDbVertex
100
AcDbPolyFaceMeshVertex
 10
2.81750201978156
 20
6.194006919860838
 30
0.7167859091913763
 70
   192
  0
VERTEX
  5
1232
330
1193
100
AcDbEntity
  8
0
 62
     7
100
AcDbVertex
100
AcDbPolyFaceMeshVertex
 10
2.95028972424933
 20
6.429884910583496
 30
0.7167859091913763
 70
   192
  0
VERTEX
  5
1233
330
1193
100
AcDbEntity
  8
0
 62
     7
100
AcDbVertex
100
AcDbPolyFaceMeshVertex
 10
2.430455205816709
 20
5.819074153900146
 30
0.7167859091913763
 70
   192
  0
VERTEX
  5
1234
330
1193
100
AcDbEntity
  8
0
 62
     7
100
AcDbVertex
100
AcDbPolyFaceMeshVertex
 10
2.642066953558408
 20
5.987868309020996
 30
0.7167859091913763
 70
   192
  0
VERTEX
  5
1235
330
1193
100
AcDbEntity
  8
0
 62
     7
100
AcDbVertex
100
AcDbPolyFaceMeshVertex
 10
1.930981634039371
 20
5.6168212890625
 30
0.7167859091913763
 70
   192
  0
VERTEX
  5
1236
330
1193
100
AcDbEntity
  8
0
 62
     7
100
AcDbVertex
100
AcDbPolyFaceMeshVertex
 10
2.19047546185919
 20
5.693851947784422
 30
0.7167859091913763
 70
   192
  0
VERTEX
  5
1237
330
1193
100
AcDbEntity
  8
0
 62
     7
100
AcDbVertex
100
AcDbPolyFaceMeshVertex
 10
1.392112729925599
 20
5.6168212890625
 30
0.7167859091913763
 70
   192
  0
VERTEX
  5
1238
330
1193
100
AcDbEntity
  8
0
 62
     7
100
AcDbVertex
100
AcDbPolyFaceMeshVertex
 10
1.661546705145319
 20
5.590825080871582
 30
0.7167859091913763
 70
   192
  0
VERTEX
  5
1239
330
1193
100
AcDbEntity
  8
0
 62
     7
100
AcDbVertex
100
AcDbPolyFaceMeshVertex
 10
0.8926382044739415
 20
5.819074153900146
 30
0.7167859091913763
 70
   192
  0
VERTEX
  5
123A
330
1193
100
AcDbEntity
  8
0
 62
     7
100
AcDbVertex
100
AcDbPolyFaceMeshVertex
 10
1.132617948431461
 20
5.693851947784422
 30
0.7167859091913763
 70
   192
  0
VERTEX
  5
123B
330
1193
100
AcDbEntity
  8
0
 62
     7
100
AcDbVertex
100
AcDbPolyFaceMeshVertex
 10
0.5055913905090979
 20
6.194006919860838
 30
0.7167859091913763
 70
   192
  0
VERTEX
  5
123C
330
1193
100
AcDbEntity
  8
0
 62
     7
100
AcDbVertex
100
AcDbPolyFaceMeshVertex
 10
0.6810274104065588
 20
5.987868309020996
 30
0.7167859091913763
 70
   192
  0
VERTEX
  5
123D
330
1193
100
AcDbEntity
  8
0
 62
     7
100
AcDbVertex
100
AcDbPolyFaceMeshVertex
 10
0.2875633219666174
 20
6.686799049377441
 30
0.7167859091913763
 70
   192
  0
VERTEX
  5
123E
330
1193
100
AcDbEntity
  8
0
 62
     7
100
AcDbVertex
100
AcDbPolyFaceMeshVertex
 10
0.3728036860413244
 20
6.429884910583496
 30
0.7167859091913763
 70
   192
  0
VERTEX
  5
123F
330
1193
100
AcDbEntity
  8
0
 62
     7
100
AcDbVertex
100
AcDbPolyFaceMeshVertex
 10
3.035530088324041
 20
6.686799049377441
 30
0.7167859091913763
 70
   192
  0
VERTEX
  5
1240
330
1193
100
AcDbEntity
  8
0
 62
     7
100
AcDbVertex
100
AcDbPolyFaceMeshVertex
 10
1.392112729925599
 20
5.6168212890625
 30
1.783214093700652
 70
   192
  0
VERTEX
  5
1241
330
1193
100
AcDbEntity
  8
0
 62
     7
100
AcDbVertex
100
AcDbPolyFaceMeshVertex
 10
1.132617948431461
 20
5.693851947784422
 30
1.783214093700652
 70
   192
  0
VERTEX
  5
1242
330
1193
100
AcDbEntity
  8
0
 62
     7
100
AcDbVertex
100
AcDbPolyFaceMeshVertex
 10
2.81750201978156
 20
6.194006919860838
 30
1.783214093700652
 70
   192
  0
VERTEX
  5
1243
330
1193
100
AcDbEntity
  8
0
 62
     7
100
AcDbVertex
100
AcDbPolyFaceMeshVertex
 10
2.95028972424933
 20
6.429884910583496
 30
1.783214093700652
 70
   192
  0
VERTEX
  5
1244
330
1193
100
AcDbEntity
  8
0
 62
     7
100
AcDbVertex
100
AcDbPolyFaceMeshVertex
 10
2.430455205816709
 20
5.819074153900146
 30
1.783214093700652
 70
   192
  0
VERTEX
  5
1245
330
1193
100
AcDbEntity
  8
0
 62
     7
100
AcDbVertex
100
AcDbPolyFaceMeshVertex
 10
2.642066953558408
 20
5.987868309020996
 30
1.783214093700652
 70
   192
  0
VERTEX
  5
1246
330
1193
100
AcDbEntity
  8
0
 62
     7
100
AcDbVertex
100
AcDbPolyFaceMeshVertex
 10
1.930981634039371
 20
5.6168212890625
 30
1.783214093700652
 70
   192
  0
VERTEX
  5
1247
330
1193
100
AcDbEntity
  8
0
 62
     7
100
AcDbVertex
100
AcDbPolyFaceMeshVertex
 10
2.19047546185919
 20
5.693851947784422
 30
1.783214093700652
 70
   192
  0
VERTEX
  5
1248
330
1193
100
AcDbEntity
  8
0
 62
     7
100
AcDbVertex
100
AcDbPolyFaceMeshVertex
 10
0.6810274104065588
 20
5.987868309020996
 30
1.783214093700652
 70
   192
  0
VERTEX
  5
1249
330
1193
100
AcDbEntity
  8
0
 62
     7
100
AcDbVertex
100
AcDbPolyFaceMeshVertex
 10
0.8926382044739415
 20
5.819074153900146
 30
1.783214093700652
 70
   192
  0
VERTEX
  5
124A
330
1193
100
AcDbEntity
  8
0
 62
     7
100
AcDbVertex
100
AcDbPolyFaceMeshVertex
 10
0.3728036860413244
 20
6.429884910583496
 30
1.783214093700652
 70
   192
  0
VERTEX
  5
124B
330
1193
100
AcDbEntity
  8
0
 62
     7
100
AcDbVertex
100
AcDbPolyFaceMeshVertex
 10
0.5055913905090979
 20
6.194006919860838
 30
1.783214093700652
 70
   192
  0
VERTEX
  5
124C
330
1193
100
AcDbEntity
  8
0
 62
     7
100
AcDbVertex
100
AcDbPolyFaceMeshVertex
 10
0.2875633219666174
 20
6.686799049377441
 30
1.783214093700652
 70
   192
  0
VERTEX
  5
124D
330
1193
100
AcDbEntity
  8
0
 62
     7
100
AcDbVertex
100
AcDbPolyFaceMeshVertex
 10
1.661546705145319
 20
5.590825080871582
 30
1.783214093700652
 70
   192
  0
VERTEX
  5
124E
330
1193
100
AcDbEntity
  8
0
 62
     7
100
AcDbVertex
100
AcDbPolyFaceMeshVertex
 10
3.035530088324041
 20
6.686799049377441
 30
1.783214093700652
 70
   192
  0
VERTEX
  5
124F
330
1193
100
AcDbEntity
  8
0
 62
     7
100
AcDbVertex
100
AcDbPolyFaceMeshVertex
 10
2.924795148748838
 20
6.185305118560791
 30
1.85787654067636
 70
   192
  0
VERTEX
  5
1250
330
1193
100
AcDbEntity
  8
0
 62
     7
100
AcDbVertex
100
AcDbPolyFaceMeshVertex
 10
3.051083562750301
 20
6.426638126373291
 30
1.85787654067636
 70
   192
  0
VERTEX
  5
1251
330
1193
100
AcDbEntity
  8
0
 62
     7
100
AcDbVertex
100
AcDbPolyFaceMeshVertex
 10
2.55329704083868
 20
5.789937496185302
 30
1.85787654067636
 70
   192
  0
VERTEX
  5
1252
330
1193
100
AcDbEntity
  8
0
 62
     7
100
AcDbVertex
100
AcDbPolyFaceMeshVertex
 10
2.75702953137824
 20
5.970723152160643
 30
1.85787654067636
 70
   192
  0
VERTEX
  5
1253
330
1193
100
AcDbEntity
  8
0
 62
     7
100
AcDbVertex
100
AcDbPolyFaceMeshVertex
 10
2.065644262213201
 20
5.552194595336914
 30
1.85787654067636
 70
   192
  0
VERTEX
  5
1254
330
1193
100
AcDbEntity
  8
0
 62
     7
100
AcDbVertex
100
AcDbPolyFaceMeshVertex
 10
2.32028484143683
 20
5.648884296417236
 30
1.85787654067636
 70
   192
  0
VERTEX
  5
1255
330
1193
100
AcDbEntity
  8
0
 62
     7
100
AcDbVertex
100
AcDbPolyFaceMeshVertex
 10
1.52535724439093
 20
5.503042697906494
 30
1.85787654067636
 70
   192
  0
VERTEX
  5
1256
330
1193
100
AcDbEntity
  8
0
 62
     7
100
AcDbVertex
100
AcDbPolyFaceMeshVertex
 10
1.797737119574041
 20
5.503042697906494
 30
1.85787654067636
 70
   192
  0
VERTEX
  5
1257
330
1193
100
AcDbEntity
  8
0
 62
     7
100
AcDbVertex
100
AcDbPolyFaceMeshVertex
 10
1.002808568853824
 20
5.648884296417236
 30
1.85787654067636
 70
   192
  0
VERTEX
  5
1258
330
1193
100
AcDbEntity
  8
0
 62
     7
100
AcDbVertex
100
AcDbPolyFaceMeshVertex
 10
1.257449148077451
 20
5.552194595336914
 30
1.85787654067636
 70
   192
  0
VERTEX
  5
1259
330
1193
100
AcDbEntity
  8
0
 62
     7
100
AcDbVertex
100
AcDbPolyFaceMeshVertex
 10
0.5660638789124164
 20
5.970723152160643
 30
1.85787654067636
 70
   192
  0
VERTEX
  5
125A
330
1193
100
AcDbEntity
  8
0
 62
     7
100
AcDbVertex
100
AcDbPolyFaceMeshVertex
 10
0.7697973231262854
 20
5.789937496185302
 30
1.85787654067636
 70
   192
  0
VERTEX
  5
125B
330
1193
100
AcDbEntity
  8
0
 62
     7
100
AcDbVertex
100
AcDbPolyFaceMeshVertex
 10
0.2720098475403478
 20
6.426638126373291
 30
1.85787654067636
 70
   192
  0
VERTEX
  5
125C
330
1193
100
AcDbEntity
  8
0
 62
     7
100
AcDbVertex
100
AcDbPolyFaceMeshVertex
 10
0.3982992152161291
 20
6.185305118560791
 30
1.85787654067636
 70
   192
  0
VERTEX
  5
125D
330
1193
100
AcDbEntity
  8
0
 62
     7
100
AcDbVertex
100
AcDbPolyFaceMeshVertex
 10
0.1913433054871252
 20
6.686799049377441
 30
1.85787654067636
 70
   192
  0
VERTEX
  5
125E
330
1193
100
AcDbEntity
  8
0
 62
     7
100
AcDbVertex
100
AcDbPolyFaceMeshVertex
 10
3.131750104803531
 20
6.686799049377441
 30
1.85787654067636
 70
   192
  0
VERTEX
  5
125F
330
1193
100
AcDbEntity
  8
0
 62
     7
100
AcDbVertex
100
AcDbPolyFaceMeshVertex
 10
2.75702953137824
 20
5.970723152160643
 30
1.93701541568399
 70
   192
  0
VERTEX
  5
1260
330
1193
100
AcDbEntity
  8
0
 62
     7
100
AcDbVertex
100
AcDbPolyFaceMeshVertex
 10
2.55329704083868
 20
5.789937496185302
 30
1.93701541568399
 70
   192
  0
VERTEX
  5
1261
330
1193
100
AcDbEntity
  8
0
 62
     7
100
AcDbVertex
100
AcDbPolyFaceMeshVertex
 10
3.051083562750301
 20
6.426638126373291
 30
1.93701541568399
 70
   192
  0
VERTEX
  5
1262
330
1193
100
AcDbEntity
  8
0
 62
     7
100
AcDbVertex
100
AcDbPolyFaceMeshVertex
 10
2.065644262213201
 20
5.552194595336914
 30
1.93701541568399
 70
   192
  0
VERTEX
  5
1263
330
1193
100
AcDbEntity
  8
0
 62
     7
100
AcDbVertex
100
AcDbPolyFaceMeshVertex
 10
2.32028484143683
 20
5.648884296417236
 30
1.93701541568399
 70
   192
  0
VERTEX
  5
1264
330
1193
100
AcDbEntity
  8
0
 62
     7
100
AcDbVertex
100
AcDbPolyFaceMeshVertex
 10
1.52535724439093
 20
5.503042697906494
 30
1.93701541568399
 70
   192
  0
VERTEX
  5
1265
330
1193
100
AcDbEntity
  8
0
 62
     7
100
AcDbVertex
100
AcDbPolyFaceMeshVertex
 10
1.797737119574041
 20
5.503042697906494
 30
1.93701541568399
 70
   192
  0
VERTEX
  5
1266
330
1193
100
AcDbEntity
  8
0
 62
     7
100
AcDbVertex
100
AcDbPolyFaceMeshVertex
 10
1.002808568853824
 20
5.648884296417236
 30
1.93701541568399
 70
   192
  0
VERTEX
  5
1267
330
1193
100
AcDbEntity
  8
0
 62
     7
100
AcDbVertex
100
AcDbPolyFaceMeshVertex
 10
1.257449148077451
 20
5.552194595336914
 30
1.93701541568399
 70
   192
  0
VERTEX
  5
1268
330
1193
100
AcDbEntity
  8
0
 62
     7
100
AcDbVertex
100
AcDbPolyFaceMeshVertex
 10
0.5660638789124164
 20
5.970723152160643
 30
1.93701541568399
 70
   192
  0
VERTEX
  5
1269
330
1193
100
AcDbEntity
  8
0
 62
     7
100
AcDbVertex
100
AcDbPolyFaceMeshVertex
 10
0.7697973231262854
 20
5.789937496185302
 30
1.93701541568399
 70
   192
  0
VERTEX
  5
126A
330
1193
100
AcDbEntity
  8
0
 62
     7
100
AcDbVertex
100
AcDbPolyFaceMeshVertex
 10
0.2720098475403478
 20
6.426638126373291
 30
1.93701541568399
 70
   192
  0
VERTEX
  5
126B
330
1193
100
AcDbEntity
  8
0
 62
     7
100
AcDbVertex
100
AcDbPolyFaceMeshVertex
 10
0.3982992152161291
 20
6.185305118560791
 30
1.93701541568399
 70
   192
  0
VERTEX
  5
126C
330
1193
100
AcDbEntity
  8
0
 62
     7
100
AcDbVertex
100
AcDbPolyFaceMeshVertex
 10
0.1913433054871252
 20
6.686799049377441
 30
1.93701541568399
 70
   192
  0
VERTEX
  5
126D
330
1193
100
AcDbEntity
  8
0
 62
     7
100
AcDbVertex
100
AcDbPolyFaceMeshVertex
 10
2.924795148748838
 20
6.185305118560791
 30
1.93701541568399
 70
   192
  0
VERTEX
  5
126E
330
1193
100
AcDbEntity
  8
0
 62
     7
100
AcDbVertex
100
AcDbPolyFaceMeshVertex
 10
3.131750104803531
 20
6.686799049377441
 30
1.93701541568399
 70
   192
  0
VERTEX
  5
126F
330
1193
100
AcDbEntity
  8
0
 62
     7
100
AcDbVertex
100
AcDbPolyFaceMeshVertex
 10
0.0846710184998205
 20
6.686799049377441
 30
2.416137696758514
 70
   192
  0
VERTEX
  5
1270
330
1193
100
AcDbEntity
  8
0
 62
     7
100
AcDbVertex
100
AcDbPolyFaceMeshVertex
 10
0.0659036616272601
 20
6.635873794555664
 30
2.382069827572113
 70
   192
  0
VERTEX
  5
1271
330
1193
100
AcDbEntity
  8
0
 62
     7
100
AcDbVertex
100
AcDbPolyFaceMeshVertex
 10
0.1538972834534338
 20
6.655957698822021
 30
2.463336946026092
 70
   192
  0
VERTEX
  5
1272
330
1193
100
AcDbEntity
  8
0
 62
     7
100
AcDbVertex
100
AcDbPolyFaceMeshVertex
 10
0.1647005061096838
 20
6.686799049377441
 30
2.472379685894256
 70
   192
  0
VERTEX
  5
1273
330
1193
100
AcDbEntity
  8
0
 62
     7
100
AcDbVertex
100
AcDbPolyFaceMeshVertex
 10
0.0276765803284338
 20
6.686799049377441
 30
2.33671331550241
 70
   192
  0
VERTEX
  5
1274
330
1193
100
AcDbEntity
  8
0
 62
     7
100
AcDbVertex
100
AcDbPolyFaceMeshVertex
 10
0.0004873255676916
 20
6.686799049377441
 30
2.243508578792815
 70
   192
  0
VERTEX
  5
1275
330
1193
100
AcDbEntity
  8
0
 62
     7
100
AcDbVertex
100
AcDbPolyFaceMeshVertex
 10
0.0177431086487463
 20
6.624881744384764
 30
2.271118403927093
 70
   192
  0
VERTEX
  5
1276
330
1193
100
AcDbEntity
  8
0
 62
     7
100
AcDbVertex
100
AcDbPolyFaceMeshVertex
 10
0.0426177958435687
 20
6.686799049377441
 30
2.05764222289682
 70
   192
  0
VERTEX
  5
1277
330
1193
100
AcDbEntity
  8
0
 62
     7
100
AcDbVertex
100
AcDbPolyFaceMeshVertex
 10
0.1067523936218908
 20
6.686799049377441
 30
1.985174538151031
 70
   192
  0
VERTEX
  5
1278
330
1193
100
AcDbEntity
  8
0
 62
     7
100
AcDbVertex
100
AcDbPolyFaceMeshVertex
 10
0.0659036616272601
 20
6.635873794555664
 30
2.038715125576263
 70
   192
  0
VERTEX
  5
1279
330
1193
100
AcDbEntity
  8
0
 62
     7
100
AcDbVertex
100
AcDbPolyFaceMeshVertex
 10
0.2395687083191564
 20
6.392286300659178
 30
1.957448126331573
 70
   192
  0
VERTEX
  5
127A
330
1193
100
AcDbEntity
  8
0
 62
     7
100
AcDbVertex
100
AcDbPolyFaceMeshVertex
 10
0.295619008917301
 20
6.098427772521972
 30
2.382069827572113
 70
   192
  0
VERTEX
  5
127B
330
1193
100
AcDbEntity
  8
0
 62
     7
100
AcDbVertex
100
AcDbPolyFaceMeshVertex
 10
0.1565761546082189
 20
6.356813430786132
 30
2.382069827572113
 70
   192
  0
VERTEX
  5
127C
330
1193
100
AcDbEntity
  8
0
 62
     7
100
AcDbVertex
100
AcDbPolyFaceMeshVertex
 10
0.1111526469177875
 20
6.337398529052733
 30
2.271118403927093
 70
   192
  0
VERTEX
  5
127D
330
1193
100
AcDbEntity
  8
0
 62
     7
100
AcDbVertex
100
AcDbPolyFaceMeshVertex
 10
0.3439760188049963
 20
6.423329830169677
 30
2.500000001446014
 70
   192
  0
VERTEX
  5
127E
330
1193
100
AcDbEntity
  8
0
 62
     7
100
AcDbVertex
100
AcDbPolyFaceMeshVertex
 10
0.3709449747986486
 20
6.148149967193602
 30
2.463336946026092
 70
   192
  0
VERTEX
  5
127F
330
1193
100
AcDbEntity
  8
0
 62
     7
100
AcDbVertex
100
AcDbPolyFaceMeshVertex
 10
0.479085920233219
 20
6.181284427642822
 30
2.500000001446014
 70
   192
  0
VERTEX
  5
1280
330
1193
100
AcDbEntity
  8
0
 62
     7
100
AcDbVertex
100
AcDbPolyFaceMeshVertex
 10
0.1565761546082189
 20
6.356813430786132
 30
2.038715125576263
 70
   192
  0
VERTEX
  5
1281
330
1193
100
AcDbEntity
  8
0
 62
     7
100
AcDbVertex
100
AcDbPolyFaceMeshVertex
 10
0.1111526469177875
 20
6.337398529052733
 30
2.149666787639862
 70
   192
  0
VERTEX
  5
1282
330
1193
100
AcDbEntity
  8
0
 62
     7
100
AcDbVertex
100
AcDbPolyFaceMeshVertex
 10
0.2543926218933752
 20
6.071214199066162
 30
2.149666787639862
 70
   192
  0
VERTEX
  5
1283
330
1193
100
AcDbEntity
  8
0
 62
     7
100
AcDbVertex
100
AcDbPolyFaceMeshVertex
 10
0.2543926218933752
 20
6.071214199066162
 30
2.271118403927093
 70
   192
  0
VERTEX
  5
1284
330
1193
100
AcDbEntity
  8
0
 62
     7
100
AcDbVertex
100
AcDbPolyFaceMeshVertex
 10
0.4785642603821448
 20
5.869021892547607
 30
2.382069827572113
 70
   192
  0
VERTEX
  5
1285
330
1193
100
AcDbEntity
  8
0
 62
     7
100
AcDbVertex
100
AcDbPolyFaceMeshVertex
 10
0.5438013056702307
 20
5.931394577026367
 30
1.957448126331573
 70
   192
  0
VERTEX
  5
1286
330
1193
100
AcDbEntity
  8
0
 62
     7
100
AcDbVertex
100
AcDbPolyFaceMeshVertex
 10
0.295619008917301
 20
6.098427772521972
 30
2.038715125576263
 70
   192
  0
VERTEX
  5
1287
330
1193
100
AcDbEntity
  8
0
 62
     7
100
AcDbVertex
100
AcDbPolyFaceMeshVertex
 10
0.4428586939758948
 20
5.834884166717528
 30
2.149666787639862
 70
   192
  0
VERTEX
  5
1288
330
1193
100
AcDbEntity
  8
0
 62
     7
100
AcDbVertex
100
AcDbPolyFaceMeshVertex
 10
0.4428586939758948
 20
5.834884166717528
 30
2.271118403927093
 70
   192
  0
VERTEX
  5
1289
330
1193
100
AcDbEntity
  8
0
 62
     7
100
AcDbVertex
100
AcDbPolyFaceMeshVertex
 10
0.6995315531677875
 20
5.675968647003172
 30
2.382069827572113
 70
   192
  0
VERTEX
  5
128A
330
1193
100
AcDbEntity
  8
0
 62
     7
100
AcDbVertex
100
AcDbPolyFaceMeshVertex
 10
0.6581201533264807
 20
5.969653606414794
 30
2.500000001446014
 70
   192
  0
VERTEX
  5
128B
330
1193
100
AcDbEntity
  8
0
 62
     7
100
AcDbVertex
100
AcDbPolyFaceMeshVertex
 10
0.7525825480408362
 20
5.748987197875976
 30
2.463336946026092
 70
   192
  0
VERTEX
  5
128C
330
1193
100
AcDbEntity
  8
0
 62
     7
100
AcDbVertex
100
AcDbPolyFaceMeshVertex
 10
0.8744277934021642
 20
5.796298503875732
 30
2.500000001446014
 70
   192
  0
VERTEX
  5
128D
330
1193
100
AcDbEntity
  8
0
 62
     7
100
AcDbVertex
100
AcDbPolyFaceMeshVertex
 10
0.4785642603821448
 20
5.869021892547607
 30
2.038715125576263
 70
   192
  0
VERTEX
  5
128E
330
1193
100
AcDbEntity
  8
0
 62
     7
100
AcDbVertex
100
AcDbPolyFaceMeshVertex
 10
0.6704959849304846
 20
5.636003971099852
 30
2.149666787639862
 70
   192
  0
VERTEX
  5
128F
330
1193
100
AcDbEntity
  8
0
 62
     7
100
AcDbVertex
100
AcDbPolyFaceMeshVertex
 10
0.6704959849304846
 20
5.636003971099852
 30
2.271118403927093
 70
   192
  0
VERTEX
  5
1290
330
1193
100
AcDbEntity
  8
0
 62
     7
100
AcDbVertex
100
AcDbPolyFaceMeshVertex
 10
0.9514188746399572
 20
5.525473117828369
 30
2.382069827572113
 70
   192
  0
VERTEX
  5
1291
330
1193
100
AcDbEntity
  8
0
 62
     7
100
AcDbVertex
100
AcDbPolyFaceMeshVertex
 10
0.990579603094547
 20
5.606791019439697
 30
1.957448126331573
 70
   192
  0
VERTEX
  5
1292
330
1193
100
AcDbEntity
  8
0
 62
     7
100
AcDbVertex
100
AcDbPolyFaceMeshVertex
 10
1.212987897772281
 20
5.374753475189208
 30
2.149666787639862
 70
   192
  0
VERTEX
  5
1293
330
1193
100
AcDbEntity
  8
0
 62
     7
100
AcDbVertex
100
AcDbPolyFaceMeshVertex
 10
0.9299859980530431
 20
5.480966091156004
 30
2.149666787639862
 70
   192
  0
VERTEX
  5
1294
330
1193
100
AcDbEntity
  8
0
 62
     7
100
AcDbVertex
100
AcDbPolyFaceMeshVertex
 10
0.9514188746399572
 20
5.525473117828369
 30
2.038715125576263
 70
   192
  0
VERTEX
  5
1295
330
1193
100
AcDbEntity
  8
0
 62
     7
100
AcDbVertex
100
AcDbPolyFaceMeshVertex
 10
0.6995315531677875
 20
5.675968647003172
 30
2.038715125576263
 70
   192
  0
VERTEX
  5
1296
330
1193
100
AcDbEntity
  8
0
 62
     7
100
AcDbVertex
100
AcDbPolyFaceMeshVertex
 10
0.9299859980530431
 20
5.480966091156004
 30
2.271118403927093
 70
   192
  0
VERTEX
  5
1297
330
1193
100
AcDbEntity
  8
0
 62
     7
100
AcDbVertex
100
AcDbPolyFaceMeshVertex
 10
1.22613048352667
 20
5.422372341156004
 30
2.382069827572113
 70
   192
  0
VERTEX
  5
1298
330
1193
100
AcDbEntity
  8
0
 62
     7
100
AcDbVertex
100
AcDbPolyFaceMeshVertex
 10
1.11997222699591
 20
5.667658329010008
 30
2.500000001446014
 70
   192
  0
VERTEX
  5
1299
330
1193
100
AcDbEntity
  8
0
 62
     7
100
AcDbVertex
100
AcDbPolyFaceMeshVertex
 10
1.25014209546515
 20
5.509375572204588
 30
2.463336946026092
 70
   192
  0
VERTEX
  5
129A
330
1193
100
AcDbEntity
  8
0
 62
     7
100
AcDbVertex
100
AcDbPolyFaceMeshVertex
 10
1.38563537396857
 20
5.588511943817137
 30
2.500000001446014
 70
   192
  0
VERTEX
  5
129B
330
1193
100
AcDbEntity
  8
0
 62
     7
100
AcDbVertex
100
AcDbPolyFaceMeshVertex
 10
1.22613048352667
 20
5.422372341156004
 30
2.038715125576263
 70
   192
  0
VERTEX
  5
129C
330
1193
100
AcDbEntity
  8
0
 62
     7
100
AcDbVertex
100
AcDbPolyFaceMeshVertex
 10
1.212987897772281
 20
5.374753475189208
 30
2.271118403927093
 70
   192
  0
VERTEX
  5
129D
330
1193
100
AcDbEntity
  8
0
 62
     7
100
AcDbVertex
100
AcDbPolyFaceMeshVertex
 10
1.50940036572882
 20
5.320870876312254
 30
2.149666787639862
 70
   192
  0
VERTEX
  5
129E
330
1193
100
AcDbEntity
  8
0
 62
     7
100
AcDbVertex
100
AcDbPolyFaceMeshVertex
 10
1.514354703802551
 20
5.370023250579833
 30
2.382069827572113
 70
   192
  0
VERTEX
  5
129F
330
1193
100
AcDbEntity
  8
0
 62
     7
100
AcDbVertex
100
AcDbPolyFaceMeshVertex
 10
1.513609884161441
 20
5.370090484619139
 30
2.038715125576263
 70
   192
  0
VERTEX
  5
12A0
330
1193
100
AcDbEntity
  8
0
 62
     7
100
AcDbVertex
100
AcDbPolyFaceMeshVertex
 10
1.509656904119941
 20
5.320847511291503
 30
2.271118403927093
 70
   192
  0
VERTEX
  5
12A1
330
1193
100
AcDbEntity
  8
0
 62
     7
100
AcDbVertex
100
AcDbPolyFaceMeshVertex
 10
1.81343745984503
 20
5.320847511291503
 30
2.271118403927093
 70
   192
  0
VERTEX
  5
12A2
330
1193
100
AcDbEntity
  8
0
 62
     7
100
AcDbVertex
100
AcDbPolyFaceMeshVertex
 10
1.661546705145319
 20
5.561799049377441
 30
2.500000001446014
 70
   192
  0
VERTEX
  5
12A3
330
1193
100
AcDbEntity
  8
0
 62
     7
100
AcDbVertex
100
AcDbPolyFaceMeshVertex
 10
1.80038738049933
 20
5.459892272949217
 30
2.463336946026092
 70
   192
  0
VERTEX
  5
12A4
330
1193
100
AcDbEntity
  8
0
 62
     7
100
AcDbVertex
100
AcDbPolyFaceMeshVertex
 10
1.93745803632208
 20
5.588511943817137
 30
2.500000001446014
 70
   192
  0
VERTEX
  5
12A5
330
1193
100
AcDbEntity
  8
0
 62
     7
100
AcDbVertex
100
AcDbPolyFaceMeshVertex
 10
1.521533964056461
 20
5.459998607635498
 30
1.957448126331573
 70
   192
  0
VERTEX
  5
12A6
330
1193
100
AcDbEntity
  8
0
 62
     7
100
AcDbVertex
100
AcDbPolyFaceMeshVertex
 10
1.80156039990851
 20
5.459998607635498
 30
1.957448126331573
 70
   192
  0
VERTEX
  5
12A7
330
1193
100
AcDbEntity
  8
0
 62
     7
100
AcDbVertex
100
AcDbPolyFaceMeshVertex
 10
1.81369304456183
 20
5.320870876312254
 30
2.149666787639862
 70
   192
  0
VERTEX
  5
12A8
330
1193
100
AcDbEntity
  8
0
 62
     7
100
AcDbVertex
100
AcDbPolyFaceMeshVertex
 10
1.808738706488099
 20
5.370023250579833
 30
2.382069827572113
 70
   192
  0
VERTEX
  5
12A9
330
1193
100
AcDbEntity
  8
0
 62
     7
100
AcDbVertex
100
AcDbPolyFaceMeshVertex
 10
2.096963880438291
 20
5.422372341156004
 30
2.382069827572113
 70
   192
  0
VERTEX
  5
12AA
330
1193
100
AcDbEntity
  8
0
 62
     7
100
AcDbVertex
100
AcDbPolyFaceMeshVertex
 10
1.809483526129209
 20
5.370090484619139
 30
2.038715125576263
 70
   192
  0
VERTEX
  5
12AB
330
1193
100
AcDbEntity
  8
0
 62
     7
100
AcDbVertex
100
AcDbPolyFaceMeshVertex
 10
2.110105512518369
 20
5.374753475189208
 30
2.149666787639862
 70
   192
  0
VERTEX
  5
12AC
330
1193
100
AcDbEntity
  8
0
 62
     7
100
AcDbVertex
100
AcDbPolyFaceMeshVertex
 10
2.110105512518369
 20
5.374753475189208
 30
2.271118403927093
 70
   192
  0
VERTEX
  5
12AD
330
1193
100
AcDbEntity
  8
0
 62
     7
100
AcDbVertex
100
AcDbPolyFaceMeshVertex
 10
2.371674535650701
 20
5.525473117828369
 30
2.382069827572113
 70
   192
  0
VERTEX
  5
12AE
330
1193
100
AcDbEntity
  8
0
 62
     7
100
AcDbVertex
100
AcDbPolyFaceMeshVertex
 10
2.20312118329474
 20
5.667658329010008
 30
2.500000001446014
 70
   192
  0
VERTEX
  5
12AF
330
1193
100
AcDbEntity
  8
0
 62
     7
100
AcDbVertex
100
AcDbPolyFaceMeshVertex
 10
2.332513807196111
 20
5.606791019439697
 30
2.463336946026092
 70
   192
  0
VERTEX
  5
12B0
330
1193
100
AcDbEntity
  8
0
 62
     7
100
AcDbVertex
100
AcDbPolyFaceMeshVertex
 10
2.448666570562801
 20
5.796298503875732
 30
2.500000001446014
 70
   192
  0
VERTEX
  5
12B1
330
1193
100
AcDbEntity
  8
0
 62
     7
100
AcDbVertex
100
AcDbPolyFaceMeshVertex
 10
2.332513807196111
 20
5.606791019439697
 30
1.957448126331573
 70
   192
  0
VERTEX
  5
12B2
330
1193
100
AcDbEntity
  8
0
 62
     7
100
AcDbVertex
100
AcDbPolyFaceMeshVertex
 10
2.096963880438291
 20
5.422372341156004
 30
2.038715125576263
 70
   192
  0
VERTEX
  5
12B3
330
1193
100
AcDbEntity
  8
0
 62
     7
100
AcDbVertex
100
AcDbPolyFaceMeshVertex
 10
2.393108365911929
 20
5.480966091156004
 30
2.149666787639862
 70
   192
  0
VERTEX
  5
12B4
330
1193
100
AcDbEntity
  8
0
 62
     7
100
AcDbVertex
100
AcDbPolyFaceMeshVertex
 10
2.393108365911929
 20
5.480966091156004
 30
2.271118403927093
 70
   192
  0
VERTEX
  5
12B5
330
1193
100
AcDbEntity
  8
0
 62
     7
100
AcDbVertex
100
AcDbPolyFaceMeshVertex
 10
2.623561857122862
 20
5.675968647003172
 30
2.382069827572113
 70
   192
  0
VERTEX
  5
12B6
330
1193
100
AcDbEntity
  8
0
 62
     7
100
AcDbVertex
100
AcDbPolyFaceMeshVertex
 10
2.371674535650701
 20
5.525473117828369
 30
2.038715125576263
 70
   192
  0
VERTEX
  5
12B7
330
1193
100
AcDbEntity
  8
0
 62
     7
100
AcDbVertex
100
AcDbPolyFaceMeshVertex
 10
2.65259837903449
 20
5.636003971099852
 30
2.149666787639862
 70
   192
  0
VERTEX
  5
12B8
330
1193
100
AcDbEntity
  8
0
 62
     7
100
AcDbVertex
100
AcDbPolyFaceMeshVertex
 10
2.65259837903449
 20
5.636003971099852
 30
2.271118403927093
 70
   192
  0
VERTEX
  5
12B9
330
1193
100
AcDbEntity
  8
0
 62
     7
100
AcDbVertex
100
AcDbPolyFaceMeshVertex
 10
2.84452914990851
 20
5.869021892547607
 30
2.382069827572113
 70
   192
  0
VERTEX
  5
12BA
330
1193
100
AcDbEntity
  8
0
 62
     7
100
AcDbVertex
100
AcDbPolyFaceMeshVertex
 10
2.66497325696417
 20
5.969653606414794
 30
2.500000001446014
 70
   192
  0
VERTEX
  5
12BB
330
1193
100
AcDbEntity
  8
0
 62
     7
100
AcDbVertex
100
AcDbPolyFaceMeshVertex
 10
2.77929305829474
 20
5.931394577026367
 30
2.463336946026092
 70
   192
  0
VERTEX
  5
12BC
330
1193
100
AcDbEntity
  8
0
 62
     7
100
AcDbVertex
100
AcDbPolyFaceMeshVertex
 10
2.84400749005743
 20
6.181284427642822
 30
2.500000001446014
 70
   192
  0
VERTEX
  5
12BD
330
1193
100
AcDbEntity
  8
0
 62
     7
100
AcDbVertex
100
AcDbPolyFaceMeshVertex
 10
2.77929305829474
 20
5.931394577026367
 30
1.957448126331573
 70
   192
  0
VERTEX
  5
12BE
330
1193
100
AcDbEntity
  8
0
 62
     7
100
AcDbVertex
100
AcDbPolyFaceMeshVertex
 10
3.068701742071599
 20
6.071214199066162
 30
2.149666787639862
 70
   192
  0
VERTEX
  5
12BF
330
1193
100
AcDbEntity
  8
0
 62
     7
100
AcDbVertex
100
AcDbPolyFaceMeshVertex
 10
2.88023471631476
 20
5.834884166717528
 30
2.149666787639862
 70
   192
  0
VERTEX
  5
12C0
330
1193
100
AcDbEntity
  8
0
 62
     7
100
AcDbVertex
100
AcDbPolyFaceMeshVertex
 10
2.84452914990851
 20
5.869021892547607
 30
2.038715125576263
 70
   192
  0
VERTEX
  5
12C1
330
1193
100
AcDbEntity
  8
0
 62
     7
100
AcDbVertex
100
AcDbPolyFaceMeshVertex
 10
2.623561857122862
 20
5.675968647003172
 30
2.038715125576263
 70
   192
  0
VERTEX
  5
12C2
330
1193
100
AcDbEntity
  8
0
 62
     7
100
AcDbVertex
100
AcDbPolyFaceMeshVertex
 10
2.88023471631476
 20
5.834884166717528
 30
2.271118403927093
 70
   192
  0
VERTEX
  5
12C3
330
1193
100
AcDbEntity
  8
0
 62
     7
100
AcDbVertex
100
AcDbPolyFaceMeshVertex
 10
3.02747440137335
 20
6.098427772521972
 30
2.382069827572113
 70
   192
  0
VERTEX
  5
12C4
330
1193
100
AcDbEntity
  8
0
 62
     7
100
AcDbVertex
100
AcDbPolyFaceMeshVertex
 10
3.02747440137335
 20
6.098427772521972
 30
2.038715125576263
 70
   192
  0
VERTEX
  5
12C5
330
1193
100
AcDbEntity
  8
0
 62
     7
100
AcDbVertex
100
AcDbPolyFaceMeshVertex
 10
3.211941717047178
 20
6.337398529052733
 30
2.149666787639862
 70
   192
  0
VERTEX
  5
12C6
330
1193
100
AcDbEntity
  8
0
 62
     7
100
AcDbVertex
100
AcDbPolyFaceMeshVertex
 10
3.068701742071599
 20
6.071214199066162
 30
2.271118403927093
 70
   192
  0
VERTEX
  5
12C7
330
1193
100
AcDbEntity
  8
0
 62
     7
100
AcDbVertex
100
AcDbPolyFaceMeshVertex
 10
3.166518209356748
 20
6.356813430786132
 30
2.382069827572113
 70
   192
  0
VERTEX
  5
12C8
330
1193
100
AcDbEntity
  8
0
 62
     7
100
AcDbVertex
100
AcDbPolyFaceMeshVertex
 10
3.0835247019715
 20
6.392286300659178
 30
2.463336946026092
 70
   192
  0
VERTEX
  5
12C9
330
1193
100
AcDbEntity
  8
0
 62
     7
100
AcDbVertex
100
AcDbPolyFaceMeshVertex
 10
3.0835247019715
 20
6.392286300659178
 30
1.957448126331573
 70
   192
  0
VERTEX
  5
12CA
330
1193
100
AcDbEntity
  8
0
 62
     7
100
AcDbVertex
100
AcDbPolyFaceMeshVertex
 10
3.21634101666876
 20
6.686799049377441
 30
1.985174538151031
 70
   192
  0
VERTEX
  5
12CB
330
1193
100
AcDbEntity
  8
0
 62
     7
100
AcDbVertex
100
AcDbPolyFaceMeshVertex
 10
3.166518209356748
 20
6.356813430786132
 30
2.038715125576263
 70
   192
  0
VERTEX
  5
12CC
330
1193
100
AcDbEntity
  8
0
 62
     7
100
AcDbVertex
100
AcDbPolyFaceMeshVertex
 10
3.169197080511541
 20
6.655957698822021
 30
1.957448126331573
 70
   192
  0
VERTEX
  5
12CD
330
1193
100
AcDbEntity
  8
0
 62
     7
100
AcDbVertex
100
AcDbPolyFaceMeshVertex
 10
3.30535030164191
 20
6.624881744384764
 30
2.149666787639862
 70
   192
  0
VERTEX
  5
12CE
330
1193
100
AcDbEntity
  8
0
 62
     7
100
AcDbVertex
100
AcDbPolyFaceMeshVertex
 10
3.317322729010069
 20
6.686799049377441
 30
2.14693641807199
 70
   192
  0
VERTEX
  5
12CF
330
1193
100
AcDbEntity
  8
0
 62
     7
100
AcDbVertex
100
AcDbPolyFaceMeshVertex
 10
3.322607038397281
 20
6.686799049377441
 30
2.243508578792815
 70
   192
  0
VERTEX
  5
12D0
330
1193
100
AcDbEntity
  8
0
 62
     7
100
AcDbVertex
100
AcDbPolyFaceMeshVertex
 10
3.211941717047178
 20
6.337398529052733
 30
2.271118403927093
 70
   192
  0
VERTEX
  5
12D1
330
1193
100
AcDbEntity
  8
0
 62
     7
100
AcDbVertex
100
AcDbPolyFaceMeshVertex
 10
3.257189748663389
 20
6.635873794555664
 30
2.382069827572113
 70
   192
  0
VERTEX
  5
12D2
330
1193
100
AcDbEntity
  8
0
 62
     7
100
AcDbVertex
100
AcDbPolyFaceMeshVertex
 10
3.295416829962221
 20
6.686799049377441
 30
2.33671331550241
 70
   192
  0
VERTEX
  5
12D3
330
1193
100
AcDbEntity
  8
0
 62
     7
100
AcDbVertex
100
AcDbPolyFaceMeshVertex
 10
3.23842334546515
 20
6.686799049377441
 30
2.416137696758514
 70
   192
  0
VERTEX
  5
12D4
330
1193
100
AcDbEntity
  8
0
 62
     7
100
AcDbVertex
100
AcDbPolyFaceMeshVertex
 10
3.06528568067023
 20
6.686799049377441
 30
2.500000001446014
 70
   192
  0
VERTEX
  5
12D5
330
1193
100
AcDbEntity
  8
0
 62
     7
100
AcDbVertex
100
AcDbPolyFaceMeshVertex
 10
2.97911739148566
 20
6.423329830169677
 30
2.500000001446014
 70
   192
  0
VERTEX
  5
12D6
330
1193
100
AcDbEntity
  8
0
 62
     7
100
AcDbVertex
100
AcDbPolyFaceMeshVertex
 10
2.952149389166319
 20
6.148149967193602
 30
1.957448126331573
 70
   192
  0
VERTEX
  5
12D7
330
1193
100
AcDbEntity
  8
0
 62
     7
100
AcDbVertex
100
AcDbPolyFaceMeshVertex
 10
2.57051086224982
 20
5.748987197875976
 30
1.957448126331573
 70
   192
  0
VERTEX
  5
12D8
330
1193
100
AcDbEntity
  8
0
 62
     7
100
AcDbVertex
100
AcDbPolyFaceMeshVertex
 10
2.07295226849982
 20
5.509375572204588
 30
1.957448126331573
 70
   192
  0
VERTEX
  5
12D9
330
1193
100
AcDbEntity
  8
0
 62
     7
100
AcDbVertex
100
AcDbPolyFaceMeshVertex
 10
1.25014209546515
 20
5.509375572204588
 30
1.957448126331573
 70
   192
  0
VERTEX
  5
12DA
330
1193
100
AcDbEntity
  8
0
 62
     7
100
AcDbVertex
100
AcDbPolyFaceMeshVertex
 10
0.7525825480408362
 20
5.748987197875976
 30
1.957448126331573
 70
   192
  0
VERTEX
  5
12DB
330
1193
100
AcDbEntity
  8
0
 62
     7
100
AcDbVertex
100
AcDbPolyFaceMeshVertex
 10
0.3709449747986486
 20
6.148149967193602
 30
1.957448126331573
 70
   192
  0
VERTEX
  5
12DC
330
1193
100
AcDbEntity
  8
0
 62
     7
100
AcDbVertex
100
AcDbPolyFaceMeshVertex
 10
0.1538972834534338
 20
6.655957698822021
 30
1.957448126331573
 70
   192
  0
VERTEX
  5
12DD
330
1193
100
AcDbEntity
  8
0
 62
     7
100
AcDbVertex
100
AcDbPolyFaceMeshVertex
 10
0.0177431086487463
 20
6.624881744384764
 30
2.149666787639862
 70
   192
  0
VERTEX
  5
12DE
330
1193
100
AcDbEntity
  8
0
 62
     7
100
AcDbVertex
100
AcDbPolyFaceMeshVertex
 10
0.0057706812805822
 20
6.686799049377441
 30
2.14693641807199
 70
   192
  0
VERTEX
  5
12DF
330
1193
100
AcDbEntity
  8
0
 62
     7
100
AcDbVertex
100
AcDbPolyFaceMeshVertex
 10
0.2395687083191564
 20
6.392286300659178
 30
2.463336946026092
 70
   192
  0
VERTEX
  5
12E0
330
1193
100
AcDbEntity
  8
0
 62
     7
100
AcDbVertex
100
AcDbPolyFaceMeshVertex
 10
0.2578077296204242
 20
6.686799049377441
 30
2.500000001446014
 70
   192
  0
VERTEX
  5
12E1
330
1193
100
AcDbEntity
  8
0
 62
     7
100
AcDbVertex
100
AcDbPolyFaceMeshVertex
 10
0.5438013056702307
 20
5.931394577026367
 30
2.463336946026092
 70
   192
  0
VERTEX
  5
12E2
330
1193
100
AcDbEntity
  8
0
 62
     7
100
AcDbVertex
100
AcDbPolyFaceMeshVertex
 10
0.990579603094547
 20
5.606791019439697
 30
2.463336946026092
 70
   192
  0
VERTEX
  5
12E3
330
1193
100
AcDbEntity
  8
0
 62
     7
100
AcDbVertex
100
AcDbPolyFaceMeshVertex
 10
1.52270602979132
 20
5.459892272949217
 30
2.463336946026092
 70
   192
  0
VERTEX
  5
12E4
330
1193
100
AcDbEntity
  8
0
 62
     7
100
AcDbVertex
100
AcDbPolyFaceMeshVertex
 10
2.07295226849982
 20
5.509375572204588
 30
2.463336946026092
 70
   192
  0
VERTEX
  5
12E5
330
1193
100
AcDbEntity
  8
0
 62
     7
100
AcDbVertex
100
AcDbPolyFaceMeshVertex
 10
2.57051086224982
 20
5.748987197875976
 30
2.463336946026092
 70
   192
  0
VERTEX
  5
12E6
330
1193
100
AcDbEntity
  8
0
 62
     7
100
AcDbVertex
100
AcDbPolyFaceMeshVertex
 10
2.952149389166319
 20
6.148149967193602
 30
2.463336946026092
 70
   192
  0
VERTEX
  5
12E7
330
1193
100
AcDbEntity
  8
0
 62
     7
100
AcDbVertex
100
AcDbPolyFaceMeshVertex
 10
3.158392904180971
 20
6.686799049377441
 30
2.472379685894256
 70
   192
  0
VERTEX
  5
12E8
330
1193
100
AcDbEntity
  8
0
 62
     7
100
AcDbVertex
100
AcDbPolyFaceMeshVertex
 10
3.169197080511541
 20
6.655957698822021
 30
2.463336946026092
 70
   192
  0
VERTEX
  5
12E9
330
1193
100
AcDbEntity
  8
0
 62
     7
100
AcDbVertex
100
AcDbPolyFaceMeshVertex
 10
3.30535030164191
 20
6.624881744384764
 30
2.271118403927093
 70
   192
  0
VERTEX
  5
12EA
330
1193
100
AcDbEntity
  8
0
 62
     7
100
AcDbVertex
100
AcDbPolyFaceMeshVertex
 10
3.2804765681214
 20
6.686799049377441
 30
2.05764222289682
 70
   192
  0
VERTEX
  5
12EB
330
1193
100
AcDbEntity
  8
0
 62
     7
100
AcDbVertex
100
AcDbPolyFaceMeshVertex
 10
3.257189748663389
 20
6.635873794555664
 30
2.038715125576263
 70
   192
  0
VERTEX
  5
12EC
330
1193
100
AcDbEntity
  8
0
 62
     7
100
AcDbFaceRecord
 10
0.0
 20
0.0
 30
0.0
 70
   128
 71
     1
 72
     2
 73
     3
  0
VERTEX
  5
12ED
330
1193
100
AcDbEntity
  8
0
 62
     7
100
AcDbFaceRecord
 10
0.0
 20
0.0
 30
0.0
 70
   128
 71
     4
 72
     5
 73
     6
  0
VERTEX
  5
12EE
330
1193
100
AcDbEntity
  8
0
 62
     7
100
AcDbFaceRecord
 10
0.0
 20
0.0
 30
0.0
 70
   128
 71
     7
 72
     8
 73
     5
  0
VERTEX
  5
12EF
330
1193
100
AcDbEntity
  8
0
 62
     7
100
AcDbFaceRecord
 10
0.0
 20
0.0
 30
0.0
 70
   128
 71
     7
 72
     9
 73
     8
  0
VERTEX
  5
12F0
330
1193
100
AcDbEntity
  8
0
 62
     7
100
AcDbFaceRecord
 10
0.0
 20
0.0
 30
0.0
 70
   128
 71
    10
 72
    11
 73
    12
  0
VERTEX
  5
12F1
330
1193
100
AcDbEntity
  8
0
 62
     7
100
AcDbFaceRecord
 10
0.0
 20
0.0
 30
0.0
 70
   128
 71
    13
 72
    14
 73
    15
  0
VERTEX
  5
12F2
330
1193
100
AcDbEntity
  8
0
 62
     7
100
AcDbFaceRecord
 10
0.0
 20
0.0
 30
0.0
 70
   128
 71
     2
 72
    15
 73
    14
  0
VERTEX
  5
12F3
330
1193
100
AcDbEntity
  8
0
 62
     7
100
AcDbFaceRecord
 10
0.0
 20
0.0
 30
0.0
 70
   128
 71
    16
 72
    17
 73
    18
  0
VERTEX
  5
12F4
330
1193
100
AcDbEntity
  8
0
 62
     7
100
AcDbFaceRecord
 10
0.0
 20
0.0
 30
0.0
 70
   128
 71
    19
 72
    20
 73
    21
  0
VERTEX
  5
12F5
330
1193
100
AcDbEntity
  8
0
 62
     7
100
AcDbFaceRecord
 10
0.0
 20
0.0
 30
0.0
 70
   128
 71
    22
 72
    15
 73
    23
  0
VERTEX
  5
12F6
330
1193
100
AcDbEntity
  8
0
 62
     7
100
AcDbFaceRecord
 10
0.0
 20
0.0
 30
0.0
 70
   128
 71
    22
 72
    13
 73
    15
  0
VERTEX
  5
12F7
330
1193
100
AcDbEntity
  8
0
 62
     7
100
AcDbFaceRecord
 10
0.0
 20
0.0
 30
0.0
 70
   128
 71
    24
 72
    14
 73
    13
  0
VERTEX
  5
12F8
330
1193
100
AcDbEntity
  8
0
 62
     7
100
AcDbFaceRecord
 10
0.0
 20
0.0
 30
0.0
 70
   128
 71
    25
 72
    24
 73
    13
  0
VERTEX
  5
12F9
330
1193
100
AcDbEntity
  8
0
 62
     7
100
AcDbFaceRecord
 10
0.0
 20
0.0
 30
0.0
 70
   128
 71
    26
 72
    22
 73
    23
  0
VERTEX
  5
12FA
330
1193
100
AcDbEntity
  8
0
 62
     7
100
AcDbFaceRecord
 10
0.0
 20
0.0
 30
0.0
 70
   128
 71
    26
 72
    27
 73
    22
  0
VERTEX
  5
12FB
330
1193
100
AcDbEntity
  8
0
 62
     7
100
AcDbFaceRecord
 10
0.0
 20
0.0
 30
0.0
 70
   128
 71
    28
 72
    22
 73
    27
  0
VERTEX
  5
12FC
330
1193
100
AcDbEntity
  8
0
 62
     7
100
AcDbFaceRecord
 10
0.0
 20
0.0
 30
0.0
 70
   128
 71
    28
 72
    13
 73
    22
  0
VERTEX
  5
12FD
330
1193
100
AcDbEntity
  8
0
 62
     7
100
AcDbFaceRecord
 10
0.0
 20
0.0
 30
0.0
 70
   128
 71
    28
 72
    25
 73
    13
  0
VERTEX
  5
12FE
330
1193
100
AcDbEntity
  8
0
 62
     7
100
AcDbFaceRecord
 10
0.0
 20
0.0
 30
0.0
 70
   128
 71
    29
 72
    25
 73
    28
  0
VERTEX
  5
12FF
330
1193
100
AcDbEntity
  8
0
 62
     7
100
AcDbFaceRecord
 10
0.0
 20
0.0
 30
0.0
 70
   128
 71
    30
 72
    31
 73
    32
  0
VERTEX
  5
1300
330
1193
100
AcDbEntity
  8
0
 62
     7
100
AcDbFaceRecord
 10
0.0
 20
0.0
 30
0.0
 70
   128
 71
    33
 72
    34
 73
    35
  0
VERTEX
  5
1301
330
1193
100
AcDbEntity
  8
0
 62
     7
100
AcDbFaceRecord
 10
0.0
 20
0.0
 30
0.0
 70
   128
 71
    36
 72
    26
 73
    21
  0
VERTEX
  5
1302
330
1193
100
AcDbEntity
  8
0
 62
     7
100
AcDbFaceRecord
 10
0.0
 20
0.0
 30
0.0
 70
   128
 71
    36
 72
    27
 73
    26
  0
VERTEX
  5
1303
330
1193
100
AcDbEntity
  8
0
 62
     7
100
AcDbFaceRecord
 10
0.0
 20
0.0
 30
0.0
 70
   128
 71
    36
 72
    37
 73
    27
  0
VERTEX
  5
1304
330
1193
100
AcDbEntity
  8
0
 62
     7
100
AcDbFaceRecord
 10
0.0
 20
0.0
 30
0.0
 70
   128
 71
    38
 72
    27
 73
    37
  0
VERTEX
  5
1305
330
1193
100
AcDbEntity
  8
0
 62
     7
100
AcDbFaceRecord
 10
0.0
 20
0.0
 30
0.0
 70
   128
 71
    38
 72
    28
 73
    27
  0
VERTEX
  5
1306
330
1193
100
AcDbEntity
  8
0
 62
     7
100
AcDbFaceRecord
 10
0.0
 20
0.0
 30
0.0
 70
   128
 71
    38
 72
    29
 73
    28
  0
VERTEX
  5
1307
330
1193
100
AcDbEntity
  8
0
 62
     7
100
AcDbFaceRecord
 10
0.0
 20
0.0
 30
0.0
 70
   128
 71
    31
 72
    25
 73
    29
  0
VERTEX
  5
1308
330
1193
100
AcDbEntity
  8
0
 62
     7
100
AcDbFaceRecord
 10
0.0
 20
0.0
 30
0.0
 70
   128
 71
    39
 72
    29
 73
    38
  0
VERTEX
  5
1309
330
1193
100
AcDbEntity
  8
0
 62
     7
100
AcDbFaceRecord
 10
0.0
 20
0.0
 30
0.0
 70
   128
 71
    40
 72
    37
 73
    36
  0
VERTEX
  5
130A
330
1193
100
AcDbEntity
  8
0
 62
     7
100
AcDbFaceRecord
 10
0.0
 20
0.0
 30
0.0
 70
   128
 71
    40
 72
    41
 73
    37
  0
VERTEX
  5
130B
330
1193
100
AcDbEntity
  8
0
 62
     7
100
AcDbFaceRecord
 10
0.0
 20
0.0
 30
0.0
 70
   128
 71
    42
 72
    37
 73
    41
  0
VERTEX
  5
130C
330
1193
100
AcDbEntity
  8
0
 62
     7
100
AcDbFaceRecord
 10
0.0
 20
0.0
 30
0.0
 70
   128
 71
    42
 72
    38
 73
    37
  0
VERTEX
  5
130D
330
1193
100
AcDbEntity
  8
0
 62
     7
100
AcDbFaceRecord
 10
0.0
 20
0.0
 30
0.0
 70
   128
 71
    42
 72
    39
 73
    38
  0
VERTEX
  5
130E
330
1193
100
AcDbEntity
  8
0
 62
     7
100
AcDbFaceRecord
 10
0.0
 20
0.0
 30
0.0
 70
   128
 71
    43
 72
    39
 73
    42
  0
VERTEX
  5
130F
330
1193
100
AcDbEntity
  8
0
 62
     7
100
AcDbFaceRecord
 10
0.0
 20
0.0
 30
0.0
 70
   128
 71
    44
 72
    45
 73
    46
  0
VERTEX
  5
1310
330
1193
100
AcDbEntity
  8
0
 62
     7
100
AcDbFaceRecord
 10
0.0
 20
0.0
 30
0.0
 70
   128
 71
    47
 72
    48
 73
    49
  0
VERTEX
  5
1311
330
1193
100
AcDbEntity
  8
0
 62
     7
100
AcDbFaceRecord
 10
0.0
 20
0.0
 30
0.0
 70
   128
 71
    50
 72
    40
 73
    35
  0
VERTEX
  5
1312
330
1193
100
AcDbEntity
  8
0
 62
     7
100
AcDbFaceRecord
 10
0.0
 20
0.0
 30
0.0
 70
   128
 71
    50
 72
    41
 73
    40
  0
VERTEX
  5
1313
330
1193
100
AcDbEntity
  8
0
 62
     7
100
AcDbFaceRecord
 10
0.0
 20
0.0
 30
0.0
 70
   128
 71
    50
 72
    48
 73
    41
  0
VERTEX
  5
1314
330
1193
100
AcDbEntity
  8
0
 62
     7
100
AcDbFaceRecord
 10
0.0
 20
0.0
 30
0.0
 70
   128
 71
    50
 72
    49
 73
    48
  0
VERTEX
  5
1315
330
1193
100
AcDbEntity
  8
0
 62
     7
100
AcDbFaceRecord
 10
0.0
 20
0.0
 30
0.0
 70
   128
 71
    51
 72
    41
 73
    48
  0
VERTEX
  5
1316
330
1193
100
AcDbEntity
  8
0
 62
     7
100
AcDbFaceRecord
 10
0.0
 20
0.0
 30
0.0
 70
   128
 71
    51
 72
    42
 73
    41
  0
VERTEX
  5
1317
330
1193
100
AcDbEntity
  8
0
 62
     7
100
AcDbFaceRecord
 10
0.0
 20
0.0
 30
0.0
 70
   128
 71
    51
 72
    43
 73
    42
  0
VERTEX
  5
1318
330
1193
100
AcDbEntity
  8
0
 62
     7
100
AcDbFaceRecord
 10
0.0
 20
0.0
 30
0.0
 70
   128
 71
    52
 72
    39
 73
    43
  0
VERTEX
  5
1319
330
1193
100
AcDbEntity
  8
0
 62
     7
100
AcDbFaceRecord
 10
0.0
 20
0.0
 30
0.0
 70
   128
 71
    53
 72
    43
 73
    51
  0
VERTEX
  5
131A
330
1193
100
AcDbEntity
  8
0
 62
     7
100
AcDbFaceRecord
 10
0.0
 20
0.0
 30
0.0
 70
   128
 71
    54
 72
    55
 73
    56
  0
VERTEX
  5
131B
330
1193
100
AcDbEntity
  8
0
 62
     7
100
AcDbFaceRecord
 10
0.0
 20
0.0
 30
0.0
 70
   128
 71
    57
 72
    49
 73
    46
  0
VERTEX
  5
131C
330
1193
100
AcDbEntity
  8
0
 62
     7
100
AcDbFaceRecord
 10
0.0
 20
0.0
 30
0.0
 70
   128
 71
    57
 72
    47
 73
    49
  0
VERTEX
  5
131D
330
1193
100
AcDbEntity
  8
0
 62
     7
100
AcDbFaceRecord
 10
0.0
 20
0.0
 30
0.0
 70
   128
 71
    58
 72
    47
 73
    59
  0
VERTEX
  5
131E
330
1193
100
AcDbEntity
  8
0
 62
     7
100
AcDbFaceRecord
 10
0.0
 20
0.0
 30
0.0
 70
   128
 71
    58
 72
    48
 73
    47
  0
VERTEX
  5
131F
330
1193
100
AcDbEntity
  8
0
 62
     7
100
AcDbFaceRecord
 10
0.0
 20
0.0
 30
0.0
 70
   128
 71
    58
 72
    51
 73
    48
  0
VERTEX
  5
1320
330
1193
100
AcDbEntity
  8
0
 62
     7
100
AcDbFaceRecord
 10
0.0
 20
0.0
 30
0.0
 70
   128
 71
    58
 72
    53
 73
    51
  0
VERTEX
  5
1321
330
1193
100
AcDbEntity
  8
0
 62
     7
100
AcDbFaceRecord
 10
0.0
 20
0.0
 30
0.0
 70
   128
 71
    60
 72
    47
 73
    57
  0
VERTEX
  5
1322
330
1193
100
AcDbEntity
  8
0
 62
     7
100
AcDbFaceRecord
 10
0.0
 20
0.0
 30
0.0
 70
   128
 71
    60
 72
    59
 73
    47
  0
VERTEX
  5
1323
330
1193
100
AcDbEntity
  8
0
 62
     7
100
AcDbFaceRecord
 10
0.0
 20
0.0
 30
0.0
 70
   128
 71
    61
 72
    52
 73
    62
  0
VERTEX
  5
1324
330
1193
100
AcDbEntity
  8
0
 62
     7
100
AcDbFaceRecord
 10
0.0
 20
0.0
 30
0.0
 70
   128
 71
    63
 72
    59
 73
    64
  0
VERTEX
  5
1325
330
1193
100
AcDbEntity
  8
0
 62
     7
100
AcDbFaceRecord
 10
0.0
 20
0.0
 30
0.0
 70
   128
 71
    63
 72
    58
 73
    59
  0
VERTEX
  5
1326
330
1193
100
AcDbEntity
  8
0
 62
     7
100
AcDbFaceRecord
 10
0.0
 20
0.0
 30
0.0
 70
   128
 71
    63
 72
    53
 73
    58
  0
VERTEX
  5
1327
330
1193
100
AcDbEntity
  8
0
 62
     7
100
AcDbFaceRecord
 10
0.0
 20
0.0
 30
0.0
 70
   128
 71
    63
 72
    65
 73
    53
  0
VERTEX
  5
1328
330
1193
100
AcDbEntity
  8
0
 62
     7
100
AcDbFaceRecord
 10
0.0
 20
0.0
 30
0.0
 70
   128
 71
    66
 72
    60
 73
    57
  0
VERTEX
  5
1329
330
1193
100
AcDbEntity
  8
0
 62
     7
100
AcDbFaceRecord
 10
0.0
 20
0.0
 30
0.0
 70
   128
 71
    66
 72
    67
 73
    60
  0
VERTEX
  5
132A
330
1193
100
AcDbEntity
  8
0
 62
     7
100
AcDbFaceRecord
 10
0.0
 20
0.0
 30
0.0
 70
   128
 71
    68
 72
    60
 73
    67
  0
VERTEX
  5
132B
330
1193
100
AcDbEntity
  8
0
 62
     7
100
AcDbFaceRecord
 10
0.0
 20
0.0
 30
0.0
 70
   128
 71
    68
 72
    59
 73
    60
  0
VERTEX
  5
132C
330
1193
100
AcDbEntity
  8
0
 62
     7
100
AcDbFaceRecord
 10
0.0
 20
0.0
 30
0.0
 70
   128
 71
    68
 72
    64
 73
    59
  0
VERTEX
  5
132D
330
1193
100
AcDbEntity
  8
0
 62
     7
100
AcDbFaceRecord
 10
0.0
 20
0.0
 30
0.0
 70
   128
 71
    69
 72
    64
 73
    68
  0
VERTEX
  5
132E
330
1193
100
AcDbEntity
  8
0
 62
     7
100
AcDbFaceRecord
 10
0.0
 20
0.0
 30
0.0
 70
   128
 71
    70
 72
    71
 73
    72
  0
VERTEX
  5
132F
330
1193
100
AcDbEntity
  8
0
 62
     7
100
AcDbFaceRecord
 10
0.0
 20
0.0
 30
0.0
 70
   128
 71
    70
 72
    65
 73
    71
  0
VERTEX
  5
1330
330
1193
100
AcDbEntity
  8
0
 62
     7
100
AcDbFaceRecord
 10
0.0
 20
0.0
 30
0.0
 70
   128
 71
    73
 72
    74
 73
    75
  0
VERTEX
  5
1331
330
1193
100
AcDbEntity
  8
0
 62
     7
100
AcDbFaceRecord
 10
0.0
 20
0.0
 30
0.0
 70
   128
 71
    76
 72
    68
 73
    67
  0
VERTEX
  5
1332
330
1193
100
AcDbEntity
  8
0
 62
     7
100
AcDbFaceRecord
 10
0.0
 20
0.0
 30
0.0
 70
   128
 71
    76
 72
    69
 73
    68
  0
VERTEX
  5
1333
330
1193
100
AcDbEntity
  8
0
 62
     7
100
AcDbFaceRecord
 10
0.0
 20
0.0
 30
0.0
 70
   128
 71
    77
 72
    64
 73
    69
  0
VERTEX
  5
1334
330
1193
100
AcDbEntity
  8
0
 62
     7
100
AcDbFaceRecord
 10
0.0
 20
0.0
 30
0.0
 70
   128
 71
    78
 72
    77
 73
    69
  0
VERTEX
  5
1335
330
1193
100
AcDbEntity
  8
0
 62
     7
100
AcDbFaceRecord
 10
0.0
 20
0.0
 30
0.0
 70
   128
 71
    79
 72
    80
 73
    81
  0
VERTEX
  5
1336
330
1193
100
AcDbEntity
  8
0
 62
     7
100
AcDbFaceRecord
 10
0.0
 20
0.0
 30
0.0
 70
   128
 71
    82
 72
    76
 73
    67
  0
VERTEX
  5
1337
330
1193
100
AcDbEntity
  8
0
 62
     7
100
AcDbFaceRecord
 10
0.0
 20
0.0
 30
0.0
 70
   128
 71
    82
 72
    83
 73
    76
  0
VERTEX
  5
1338
330
1193
100
AcDbEntity
  8
0
 62
     7
100
AcDbFaceRecord
 10
0.0
 20
0.0
 30
0.0
 70
   128
 71
    84
 72
    76
 73
    83
  0
VERTEX
  5
1339
330
1193
100
AcDbEntity
  8
0
 62
     7
100
AcDbFaceRecord
 10
0.0
 20
0.0
 30
0.0
 70
   128
 71
    84
 72
    69
 73
    76
  0
VERTEX
  5
133A
330
1193
100
AcDbEntity
  8
0
 62
     7
100
AcDbFaceRecord
 10
0.0
 20
0.0
 30
0.0
 70
   128
 71
    84
 72
    78
 73
    69
  0
VERTEX
  5
133B
330
1193
100
AcDbEntity
  8
0
 62
     7
100
AcDbFaceRecord
 10
0.0
 20
0.0
 30
0.0
 70
   128
 71
    80
 72
    77
 73
    78
  0
VERTEX
  5
133C
330
1193
100
AcDbEntity
  8
0
 62
     7
100
AcDbFaceRecord
 10
0.0
 20
0.0
 30
0.0
 70
   128
 71
    85
 72
    78
 73
    84
  0
VERTEX
  5
133D
330
1193
100
AcDbEntity
  8
0
 62
     7
100
AcDbFaceRecord
 10
0.0
 20
0.0
 30
0.0
 70
   128
 71
    86
 72
    87
 73
    88
  0
VERTEX
  5
133E
330
1193
100
AcDbEntity
  8
0
 62
     7
100
AcDbFaceRecord
 10
0.0
 20
0.0
 30
0.0
 70
   128
 71
    89
 72
    90
 73
    91
  0
VERTEX
  5
133F
330
1193
100
AcDbEntity
  8
0
 62
     7
100
AcDbFaceRecord
 10
0.0
 20
0.0
 30
0.0
 70
   128
 71
    92
 72
    82
 73
    75
  0
VERTEX
  5
1340
330
1193
100
AcDbEntity
  8
0
 62
     7
100
AcDbFaceRecord
 10
0.0
 20
0.0
 30
0.0
 70
   128
 71
    92
 72
    83
 73
    82
  0
VERTEX
  5
1341
330
1193
100
AcDbEntity
  8
0
 62
     7
100
AcDbFaceRecord
 10
0.0
 20
0.0
 30
0.0
 70
   128
 71
    92
 72
    90
 73
    83
  0
VERTEX
  5
1342
330
1193
100
AcDbEntity
  8
0
 62
     7
100
AcDbFaceRecord
 10
0.0
 20
0.0
 30
0.0
 70
   128
 71
    92
 72
    91
 73
    90
  0
VERTEX
  5
1343
330
1193
100
AcDbEntity
  8
0
 62
     7
100
AcDbFaceRecord
 10
0.0
 20
0.0
 30
0.0
 70
   128
 71
    93
 72
    83
 73
    90
  0
VERTEX
  5
1344
330
1193
100
AcDbEntity
  8
0
 62
     7
100
AcDbFaceRecord
 10
0.0
 20
0.0
 30
0.0
 70
   128
 71
    93
 72
    84
 73
    83
  0
VERTEX
  5
1345
330
1193
100
AcDbEntity
  8
0
 62
     7
100
AcDbFaceRecord
 10
0.0
 20
0.0
 30
0.0
 70
   128
 71
    93
 72
    85
 73
    84
  0
VERTEX
  5
1346
330
1193
100
AcDbEntity
  8
0
 62
     7
100
AcDbFaceRecord
 10
0.0
 20
0.0
 30
0.0
 70
   128
 71
    94
 72
    85
 73
    93
  0
VERTEX
  5
1347
330
1193
100
AcDbEntity
  8
0
 62
     7
100
AcDbFaceRecord
 10
0.0
 20
0.0
 30
0.0
 70
   128
 71
    95
 72
    96
 73
    97
  0
VERTEX
  5
1348
330
1193
100
AcDbEntity
  8
0
 62
     7
100
AcDbFaceRecord
 10
0.0
 20
0.0
 30
0.0
 70
   128
 71
    98
 72
    91
 73
    88
  0
VERTEX
  5
1349
330
1193
100
AcDbEntity
  8
0
 62
     7
100
AcDbFaceRecord
 10
0.0
 20
0.0
 30
0.0
 70
   128
 71
    98
 72
    89
 73
    91
  0
VERTEX
  5
134A
330
1193
100
AcDbEntity
  8
0
 62
     7
100
AcDbFaceRecord
 10
0.0
 20
0.0
 30
0.0
 70
   128
 71
    99
 72
    90
 73
    89
  0
VERTEX
  5
134B
330
1193
100
AcDbEntity
  8
0
 62
     7
100
AcDbFaceRecord
 10
0.0
 20
0.0
 30
0.0
 70
   128
 71
    99
 72
    93
 73
    90
  0
VERTEX
  5
134C
330
1193
100
AcDbEntity
  8
0
 62
     7
100
AcDbFaceRecord
 10
0.0
 20
0.0
 30
0.0
 70
   128
 71
    99
 72
    94
 73
    93
  0
VERTEX
  5
134D
330
1193
100
AcDbEntity
  8
0
 62
     7
100
AcDbFaceRecord
 10
0.0
 20
0.0
 30
0.0
 70
   128
 71
    96
 72
    85
 73
    94
  0
VERTEX
  5
134E
330
1193
100
AcDbEntity
  8
0
 62
     7
100
AcDbFaceRecord
 10
0.0
 20
0.0
 30
0.0
 70
   128
 71
   100
 72
    94
 73
    99
  0
VERTEX
  5
134F
330
1193
100
AcDbEntity
  8
0
 62
     7
100
AcDbFaceRecord
 10
0.0
 20
0.0
 30
0.0
 70
   128
 71
   101
 72
   102
 73
   103
  0
VERTEX
  5
1350
330
1193
100
AcDbEntity
  8
0
 62
     7
100
AcDbFaceRecord
 10
0.0
 20
0.0
 30
0.0
 70
   128
 71
   104
 72
    99
 73
    89
  0
VERTEX
  5
1351
330
1193
100
AcDbEntity
  8
0
 62
     7
100
AcDbFaceRecord
 10
0.0
 20
0.0
 30
0.0
 70
   128
 71
   104
 72
   100
 73
    99
  0
VERTEX
  5
1352
330
1193
100
AcDbEntity
  8
0
 62
     7
100
AcDbFaceRecord
 10
0.0
 20
0.0
 30
0.0
 70
   128
 71
   105
 72
   106
 73
   107
  0
VERTEX
  5
1353
330
1193
100
AcDbEntity
  8
0
 62
     7
100
AcDbFaceRecord
 10
0.0
 20
0.0
 30
0.0
 70
   128
 71
   108
 72
   109
 73
   106
  0
VERTEX
  5
1354
330
1193
100
AcDbEntity
  8
0
 62
     7
100
AcDbFaceRecord
 10
0.0
 20
0.0
 30
0.0
 70
   128
 71
   110
 72
    98
 73
   107
  0
VERTEX
  5
1355
330
1193
100
AcDbEntity
  8
0
 62
     7
100
AcDbFaceRecord
 10
0.0
 20
0.0
 30
0.0
 70
   128
 71
   110
 72
    89
 73
    98
  0
VERTEX
  5
1356
330
1193
100
AcDbEntity
  8
0
 62
     7
100
AcDbFaceRecord
 10
0.0
 20
0.0
 30
0.0
 70
   128
 71
   110
 72
   104
 73
    89
  0
VERTEX
  5
1357
330
1193
100
AcDbEntity
  8
0
 62
     7
100
AcDbFaceRecord
 10
0.0
 20
0.0
 30
0.0
 70
   128
 71
   110
 72
   111
 73
   104
  0
VERTEX
  5
1358
330
1193
100
AcDbEntity
  8
0
 62
     7
100
AcDbFaceRecord
 10
0.0
 20
0.0
 30
0.0
 70
   128
 71
   112
 72
   113
 73
   111
  0
VERTEX
  5
1359
330
1193
100
AcDbEntity
  8
0
 62
     7
100
AcDbFaceRecord
 10
0.0
 20
0.0
 30
0.0
 70
   128
 71
   114
 72
    64
 73
    77
  0
VERTEX
  5
135A
330
1193
100
AcDbEntity
  8
0
 62
     7
100
AcDbFaceRecord
 10
0.0
 20
0.0
 30
0.0
 70
   128
 71
   114
 72
    63
 73
    64
  0
VERTEX
  5
135B
330
1193
100
AcDbEntity
  8
0
 62
     7
100
AcDbFaceRecord
 10
0.0
 20
0.0
 30
0.0
 70
   128
 71
   114
 72
    65
 73
    63
  0
VERTEX
  5
135C
330
1193
100
AcDbEntity
  8
0
 62
     7
100
AcDbFaceRecord
 10
0.0
 20
0.0
 30
0.0
 70
   128
 71
   114
 72
    71
 73
    65
  0
VERTEX
  5
135D
330
1193
100
AcDbEntity
  8
0
 62
     7
100
AcDbFaceRecord
 10
0.0
 20
0.0
 30
0.0
 70
   128
 71
   115
 72
   116
 73
   105
  0
VERTEX
  5
135E
330
1193
100
AcDbEntity
  8
0
 62
     7
100
AcDbFaceRecord
 10
0.0
 20
0.0
 30
0.0
 70
   128
 71
   117
 72
    88
 73
    87
  0
VERTEX
  5
135F
330
1193
100
AcDbEntity
  8
0
 62
     7
100
AcDbFaceRecord
 10
0.0
 20
0.0
 30
0.0
 70
   128
 71
   117
 72
    98
 73
    88
  0
VERTEX
  5
1360
330
1193
100
AcDbEntity
  8
0
 62
     7
100
AcDbFaceRecord
 10
0.0
 20
0.0
 30
0.0
 70
   128
 71
   117
 72
   107
 73
    98
  0
VERTEX
  5
1361
330
1193
100
AcDbEntity
  8
0
 62
     7
100
AcDbFaceRecord
 10
0.0
 20
0.0
 30
0.0
 70
   128
 71
   117
 72
   105
 73
   107
  0
VERTEX
  5
1362
330
1193
100
AcDbEntity
  8
0
 62
     7
100
AcDbFaceRecord
 10
0.0
 20
0.0
 30
0.0
 70
   128
 71
   117
 72
   115
 73
   105
  0
VERTEX
  5
1363
330
1193
100
AcDbEntity
  8
0
 62
     7
100
AcDbFaceRecord
 10
0.0
 20
0.0
 30
0.0
 70
   128
 71
   115
 72
   117
 73
    87
  0
VERTEX
  5
1364
330
1193
100
AcDbEntity
  8
0
 62
     7
100
AcDbFaceRecord
 10
0.0
 20
0.0
 30
0.0
 70
   128
 71
   118
 72
    75
 73
    74
  0
VERTEX
  5
1365
330
1193
100
AcDbEntity
  8
0
 62
     7
100
AcDbFaceRecord
 10
0.0
 20
0.0
 30
0.0
 70
   128
 71
   118
 72
    92
 73
    75
  0
VERTEX
  5
1366
330
1193
100
AcDbEntity
  8
0
 62
     7
100
AcDbFaceRecord
 10
0.0
 20
0.0
 30
0.0
 70
   128
 71
   118
 72
    91
 73
    92
  0
VERTEX
  5
1367
330
1193
100
AcDbEntity
  8
0
 62
     7
100
AcDbFaceRecord
 10
0.0
 20
0.0
 30
0.0
 70
   128
 71
   118
 72
    88
 73
    91
  0
VERTEX
  5
1368
330
1193
100
AcDbEntity
  8
0
 62
     7
100
AcDbFaceRecord
 10
0.0
 20
0.0
 30
0.0
 70
   128
 71
   118
 72
    86
 73
    88
  0
VERTEX
  5
1369
330
1193
100
AcDbEntity
  8
0
 62
     7
100
AcDbFaceRecord
 10
0.0
 20
0.0
 30
0.0
 70
   128
 71
    86
 72
   118
 73
    74
  0
VERTEX
  5
136A
330
1193
100
AcDbEntity
  8
0
 62
     7
100
AcDbFaceRecord
 10
0.0
 20
0.0
 30
0.0
 70
   128
 71
   119
 72
    55
 73
    54
  0
VERTEX
  5
136B
330
1193
100
AcDbEntity
  8
0
 62
     7
100
AcDbFaceRecord
 10
0.0
 20
0.0
 30
0.0
 70
   128
 71
   119
 72
    66
 73
    55
  0
VERTEX
  5
136C
330
1193
100
AcDbEntity
  8
0
 62
     7
100
AcDbFaceRecord
 10
0.0
 20
0.0
 30
0.0
 70
   128
 71
   119
 72
    67
 73
    66
  0
VERTEX
  5
136D
330
1193
100
AcDbEntity
  8
0
 62
     7
100
AcDbFaceRecord
 10
0.0
 20
0.0
 30
0.0
 70
   128
 71
   119
 72
    82
 73
    67
  0
VERTEX
  5
136E
330
1193
100
AcDbEntity
  8
0
 62
     7
100
AcDbFaceRecord
 10
0.0
 20
0.0
 30
0.0
 70
   128
 71
   119
 72
    75
 73
    82
  0
VERTEX
  5
136F
330
1193
100
AcDbEntity
  8
0
 62
     7
100
AcDbFaceRecord
 10
0.0
 20
0.0
 30
0.0
 70
   128
 71
   119
 72
    73
 73
    75
  0
VERTEX
  5
1370
330
1193
100
AcDbEntity
  8
0
 62
     7
100
AcDbFaceRecord
 10
0.0
 20
0.0
 30
0.0
 70
   128
 71
    73
 72
   119
 73
    54
  0
VERTEX
  5
1371
330
1193
100
AcDbEntity
  8
0
 62
     7
100
AcDbFaceRecord
 10
0.0
 20
0.0
 30
0.0
 70
   128
 71
   120
 72
    46
 73
    45
  0
VERTEX
  5
1372
330
1193
100
AcDbEntity
  8
0
 62
     7
100
AcDbFaceRecord
 10
0.0
 20
0.0
 30
0.0
 70
   128
 71
   120
 72
    57
 73
    46
  0
VERTEX
  5
1373
330
1193
100
AcDbEntity
  8
0
 62
     7
100
AcDbFaceRecord
 10
0.0
 20
0.0
 30
0.0
 70
   128
 71
   120
 72
    66
 73
    57
  0
VERTEX
  5
1374
330
1193
100
AcDbEntity
  8
0
 62
     7
100
AcDbFaceRecord
 10
0.0
 20
0.0
 30
0.0
 70
   128
 71
   120
 72
    55
 73
    66
  0
VERTEX
  5
1375
330
1193
100
AcDbEntity
  8
0
 62
     7
100
AcDbFaceRecord
 10
0.0
 20
0.0
 30
0.0
 70
   128
 71
   120
 72
    56
 73
    55
  0
VERTEX
  5
1376
330
1193
100
AcDbEntity
  8
0
 62
     7
100
AcDbFaceRecord
 10
0.0
 20
0.0
 30
0.0
 70
   128
 71
    56
 72
   120
 73
    45
  0
VERTEX
  5
1377
330
1193
100
AcDbEntity
  8
0
 62
     7
100
AcDbFaceRecord
 10
0.0
 20
0.0
 30
0.0
 70
   128
 71
   121
 72
    35
 73
    34
  0
VERTEX
  5
1378
330
1193
100
AcDbEntity
  8
0
 62
     7
100
AcDbFaceRecord
 10
0.0
 20
0.0
 30
0.0
 70
   128
 71
   121
 72
    50
 73
    35
  0
VERTEX
  5
1379
330
1193
100
AcDbEntity
  8
0
 62
     7
100
AcDbFaceRecord
 10
0.0
 20
0.0
 30
0.0
 70
   128
 71
   121
 72
    49
 73
    50
  0
VERTEX
  5
137A
330
1193
100
AcDbEntity
  8
0
 62
     7
100
AcDbFaceRecord
 10
0.0
 20
0.0
 30
0.0
 70
   128
 71
   121
 72
    46
 73
    49
  0
VERTEX
  5
137B
330
1193
100
AcDbEntity
  8
0
 62
     7
100
AcDbFaceRecord
 10
0.0
 20
0.0
 30
0.0
 70
   128
 71
   121
 72
    44
 73
    46
  0
VERTEX
  5
137C
330
1193
100
AcDbEntity
  8
0
 62
     7
100
AcDbFaceRecord
 10
0.0
 20
0.0
 30
0.0
 70
   128
 71
    44
 72
   121
 73
    34
  0
VERTEX
  5
137D
330
1193
100
AcDbEntity
  8
0
 62
     7
100
AcDbFaceRecord
 10
0.0
 20
0.0
 30
0.0
 70
   128
 71
   122
 72
    21
 73
    20
  0
VERTEX
  5
137E
330
1193
100
AcDbEntity
  8
0
 62
     7
100
AcDbFaceRecord
 10
0.0
 20
0.0
 30
0.0
 70
   128
 71
   122
 72
    36
 73
    21
  0
VERTEX
  5
137F
330
1193
100
AcDbEntity
  8
0
 62
     7
100
AcDbFaceRecord
 10
0.0
 20
0.0
 30
0.0
 70
   128
 71
   122
 72
    40
 73
    36
  0
VERTEX
  5
1380
330
1193
100
AcDbEntity
  8
0
 62
     7
100
AcDbFaceRecord
 10
0.0
 20
0.0
 30
0.0
 70
   128
 71
   122
 72
    35
 73
    40
  0
VERTEX
  5
1381
330
1193
100
AcDbEntity
  8
0
 62
     7
100
AcDbFaceRecord
 10
0.0
 20
0.0
 30
0.0
 70
   128
 71
   122
 72
    33
 73
    35
  0
VERTEX
  5
1382
330
1193
100
AcDbEntity
  8
0
 62
     7
100
AcDbFaceRecord
 10
0.0
 20
0.0
 30
0.0
 70
   128
 71
    33
 72
   122
 73
    20
  0
VERTEX
  5
1383
330
1193
100
AcDbEntity
  8
0
 62
     7
100
AcDbFaceRecord
 10
0.0
 20
0.0
 30
0.0
 70
   128
 71
   123
 72
    12
 73
    11
  0
VERTEX
  5
1384
330
1193
100
AcDbEntity
  8
0
 62
     7
100
AcDbFaceRecord
 10
0.0
 20
0.0
 30
0.0
 70
   128
 71
   123
 72
    23
 73
    12
  0
VERTEX
  5
1385
330
1193
100
AcDbEntity
  8
0
 62
     7
100
AcDbFaceRecord
 10
0.0
 20
0.0
 30
0.0
 70
   128
 71
   123
 72
    26
 73
    23
  0
VERTEX
  5
1386
330
1193
100
AcDbEntity
  8
0
 62
     7
100
AcDbFaceRecord
 10
0.0
 20
0.0
 30
0.0
 70
   128
 71
   123
 72
    21
 73
    26
  0
VERTEX
  5
1387
330
1193
100
AcDbEntity
  8
0
 62
     7
100
AcDbFaceRecord
 10
0.0
 20
0.0
 30
0.0
 70
   128
 71
   123
 72
    19
 73
    21
  0
VERTEX
  5
1388
330
1193
100
AcDbEntity
  8
0
 62
     7
100
AcDbFaceRecord
 10
0.0
 20
0.0
 30
0.0
 70
   128
 71
    19
 72
   123
 73
    11
  0
VERTEX
  5
1389
330
1193
100
AcDbEntity
  8
0
 62
     7
100
AcDbFaceRecord
 10
0.0
 20
0.0
 30
0.0
 70
   128
 71
   124
 72
    10
 73
    12
  0
VERTEX
  5
138A
330
1193
100
AcDbEntity
  8
0
 62
     7
100
AcDbFaceRecord
 10
0.0
 20
0.0
 30
0.0
 70
   128
 71
   125
 72
     2
 73
     1
  0
VERTEX
  5
138B
330
1193
100
AcDbEntity
  8
0
 62
     7
100
AcDbFaceRecord
 10
0.0
 20
0.0
 30
0.0
 70
   128
 71
   125
 72
    15
 73
     2
  0
VERTEX
  5
138C
330
1193
100
AcDbEntity
  8
0
 62
     7
100
AcDbFaceRecord
 10
0.0
 20
0.0
 30
0.0
 70
   128
 71
   125
 72
    23
 73
    15
  0
VERTEX
  5
138D
330
1193
100
AcDbEntity
  8
0
 62
     7
100
AcDbFaceRecord
 10
0.0
 20
0.0
 30
0.0
 70
   128
 71
   125
 72
    12
 73
    23
  0
VERTEX
  5
138E
330
1193
100
AcDbEntity
  8
0
 62
     7
100
AcDbFaceRecord
 10
0.0
 20
0.0
 30
0.0
 70
   128
 71
   125
 72
   124
 73
    12
  0
VERTEX
  5
138F
330
1193
100
AcDbEntity
  8
0
 62
     7
100
AcDbFaceRecord
 10
0.0
 20
0.0
 30
0.0
 70
   128
 71
   124
 72
   125
 73
     1
  0
VERTEX
  5
1390
330
1193
100
AcDbEntity
  8
0
 62
     7
100
AcDbFaceRecord
 10
0.0
 20
0.0
 30
0.0
 70
   128
 71
     9
 72
     2
 73
    14
  0
VERTEX
  5
1391
330
1193
100
AcDbEntity
  8
0
 62
     7
100
AcDbFaceRecord
 10
0.0
 20
0.0
 30
0.0
 70
   128
 71
     9
 72
     3
 73
     2
  0
VERTEX
  5
1392
330
1193
100
AcDbEntity
  8
0
 62
     7
100
AcDbFaceRecord
 10
0.0
 20
0.0
 30
0.0
 70
   128
 71
   126
 72
     3
 73
     9
  0
VERTEX
  5
1393
330
1193
100
AcDbEntity
  8
0
 62
     7
100
AcDbFaceRecord
 10
0.0
 20
0.0
 30
0.0
 70
   128
 71
   126
 72
     9
 73
     7
  0
VERTEX
  5
1394
330
1193
100
AcDbEntity
  8
0
 62
     7
100
AcDbFaceRecord
 10
0.0
 20
0.0
 30
0.0
 70
   128
 71
   127
 72
    24
 73
    17
  0
VERTEX
  5
1395
330
1193
100
AcDbEntity
  8
0
 62
     7
100
AcDbFaceRecord
 10
0.0
 20
0.0
 30
0.0
 70
   128
 71
   127
 72
    14
 73
    24
  0
VERTEX
  5
1396
330
1193
100
AcDbEntity
  8
0
 62
     7
100
AcDbFaceRecord
 10
0.0
 20
0.0
 30
0.0
 70
   128
 71
   127
 72
     9
 73
    14
  0
VERTEX
  5
1397
330
1193
100
AcDbEntity
  8
0
 62
     7
100
AcDbFaceRecord
 10
0.0
 20
0.0
 30
0.0
 70
   128
 71
   127
 72
     8
 73
     9
  0
VERTEX
  5
1398
330
1193
100
AcDbEntity
  8
0
 62
     7
100
AcDbFaceRecord
 10
0.0
 20
0.0
 30
0.0
 70
   128
 71
   127
 72
     5
 73
     8
  0
VERTEX
  5
1399
330
1193
100
AcDbEntity
  8
0
 62
     7
100
AcDbFaceRecord
 10
0.0
 20
0.0
 30
0.0
 70
   128
 71
   128
 72
     4
 73
     6
  0
VERTEX
  5
139A
330
1193
100
AcDbEntity
  8
0
 62
     7
100
AcDbFaceRecord
 10
0.0
 20
0.0
 30
0.0
 70
   128
 71
   129
 72
    17
 73
    16
  0
VERTEX
  5
139B
330
1193
100
AcDbEntity
  8
0
 62
     7
100
AcDbFaceRecord
 10
0.0
 20
0.0
 30
0.0
 70
   128
 71
   129
 72
   127
 73
    17
  0
VERTEX
  5
139C
330
1193
100
AcDbEntity
  8
0
 62
     7
100
AcDbFaceRecord
 10
0.0
 20
0.0
 30
0.0
 70
   128
 71
   129
 72
     5
 73
   127
  0
VERTEX
  5
139D
330
1193
100
AcDbEntity
  8
0
 62
     7
100
AcDbFaceRecord
 10
0.0
 20
0.0
 30
0.0
 70
   128
 71
   129
 72
     6
 73
     5
  0
VERTEX
  5
139E
330
1193
100
AcDbEntity
  8
0
 62
     7
100
AcDbFaceRecord
 10
0.0
 20
0.0
 30
0.0
 70
   128
 71
   129
 72
   128
 73
     6
  0
VERTEX
  5
139F
330
1193
100
AcDbEntity
  8
0
 62
     7
100
AcDbFaceRecord
 10
0.0
 20
0.0
 30
0.0
 70
   128
 71
   128
 72
   129
 73
    16
  0
VERTEX
  5
13A0
330
1193
100
AcDbEntity
  8
0
 62
     7
100
AcDbFaceRecord
 10
0.0
 20
0.0
 30
0.0
 70
   128
 71
   130
 72
    31
 73
    30
  0
VERTEX
  5
13A1
330
1193
100
AcDbEntity
  8
0
 62
     7
100
AcDbFaceRecord
 10
0.0
 20
0.0
 30
0.0
 70
   128
 71
   130
 72
    25
 73
    31
  0
VERTEX
  5
13A2
330
1193
100
AcDbEntity
  8
0
 62
     7
100
AcDbFaceRecord
 10
0.0
 20
0.0
 30
0.0
 70
   128
 71
   130
 72
    24
 73
    25
  0
VERTEX
  5
13A3
330
1193
100
AcDbEntity
  8
0
 62
     7
100
AcDbFaceRecord
 10
0.0
 20
0.0
 30
0.0
 70
   128
 71
   130
 72
    17
 73
    24
  0
VERTEX
  5
13A4
330
1193
100
AcDbEntity
  8
0
 62
     7
100
AcDbFaceRecord
 10
0.0
 20
0.0
 30
0.0
 70
   128
 71
   130
 72
    18
 73
    17
  0
VERTEX
  5
13A5
330
1193
100
AcDbEntity
  8
0
 62
     7
100
AcDbFaceRecord
 10
0.0
 20
0.0
 30
0.0
 70
   128
 71
    18
 72
   130
 73
    30
  0
VERTEX
  5
13A6
330
1193
100
AcDbEntity
  8
0
 62
     7
100
AcDbFaceRecord
 10
0.0
 20
0.0
 30
0.0
 70
   128
 71
   131
 72
    52
 73
    61
  0
VERTEX
  5
13A7
330
1193
100
AcDbEntity
  8
0
 62
     7
100
AcDbFaceRecord
 10
0.0
 20
0.0
 30
0.0
 70
   128
 71
   131
 72
    39
 73
    52
  0
VERTEX
  5
13A8
330
1193
100
AcDbEntity
  8
0
 62
     7
100
AcDbFaceRecord
 10
0.0
 20
0.0
 30
0.0
 70
   128
 71
   131
 72
    29
 73
    39
  0
VERTEX
  5
13A9
330
1193
100
AcDbEntity
  8
0
 62
     7
100
AcDbFaceRecord
 10
0.0
 20
0.0
 30
0.0
 70
   128
 71
   131
 72
    31
 73
    29
  0
VERTEX
  5
13AA
330
1193
100
AcDbEntity
  8
0
 62
     7
100
AcDbFaceRecord
 10
0.0
 20
0.0
 30
0.0
 70
   128
 71
   131
 72
    32
 73
    31
  0
VERTEX
  5
13AB
330
1193
100
AcDbEntity
  8
0
 62
     7
100
AcDbFaceRecord
 10
0.0
 20
0.0
 30
0.0
 70
   128
 71
    32
 72
   131
 73
    61
  0
VERTEX
  5
13AC
330
1193
100
AcDbEntity
  8
0
 62
     7
100
AcDbFaceRecord
 10
0.0
 20
0.0
 30
0.0
 70
   128
 71
   132
 72
    65
 73
    70
  0
VERTEX
  5
13AD
330
1193
100
AcDbEntity
  8
0
 62
     7
100
AcDbFaceRecord
 10
0.0
 20
0.0
 30
0.0
 70
   128
 71
   132
 72
    53
 73
    65
  0
VERTEX
  5
13AE
330
1193
100
AcDbEntity
  8
0
 62
     7
100
AcDbFaceRecord
 10
0.0
 20
0.0
 30
0.0
 70
   128
 71
   132
 72
    43
 73
    53
  0
VERTEX
  5
13AF
330
1193
100
AcDbEntity
  8
0
 62
     7
100
AcDbFaceRecord
 10
0.0
 20
0.0
 30
0.0
 70
   128
 71
   132
 72
    52
 73
    43
  0
VERTEX
  5
13B0
330
1193
100
AcDbEntity
  8
0
 62
     7
100
AcDbFaceRecord
 10
0.0
 20
0.0
 30
0.0
 70
   128
 71
   132
 72
    62
 73
    52
  0
VERTEX
  5
13B1
330
1193
100
AcDbEntity
  8
0
 62
     7
100
AcDbFaceRecord
 10
0.0
 20
0.0
 30
0.0
 70
   128
 71
    62
 72
   132
 73
    70
  0
VERTEX
  5
13B2
330
1193
100
AcDbEntity
  8
0
 62
     7
100
AcDbFaceRecord
 10
0.0
 20
0.0
 30
0.0
 70
   128
 71
   133
 72
    80
 73
    79
  0
VERTEX
  5
13B3
330
1193
100
AcDbEntity
  8
0
 62
     7
100
AcDbFaceRecord
 10
0.0
 20
0.0
 30
0.0
 70
   128
 71
   133
 72
    77
 73
    80
  0
VERTEX
  5
13B4
330
1193
100
AcDbEntity
  8
0
 62
     7
100
AcDbFaceRecord
 10
0.0
 20
0.0
 30
0.0
 70
   128
 71
   133
 72
   114
 73
    77
  0
VERTEX
  5
13B5
330
1193
100
AcDbEntity
  8
0
 62
     7
100
AcDbFaceRecord
 10
0.0
 20
0.0
 30
0.0
 70
   128
 71
   133
 72
    71
 73
   114
  0
VERTEX
  5
13B6
330
1193
100
AcDbEntity
  8
0
 62
     7
100
AcDbFaceRecord
 10
0.0
 20
0.0
 30
0.0
 70
   128
 71
   133
 72
    72
 73
    71
  0
VERTEX
  5
13B7
330
1193
100
AcDbEntity
  8
0
 62
     7
100
AcDbFaceRecord
 10
0.0
 20
0.0
 30
0.0
 70
   128
 71
    72
 72
   133
 73
    79
  0
VERTEX
  5
13B8
330
1193
100
AcDbEntity
  8
0
 62
     7
100
AcDbFaceRecord
 10
0.0
 20
0.0
 30
0.0
 70
   128
 71
   134
 72
    96
 73
    95
  0
VERTEX
  5
13B9
330
1193
100
AcDbEntity
  8
0
 62
     7
100
AcDbFaceRecord
 10
0.0
 20
0.0
 30
0.0
 70
   128
 71
   134
 72
    85
 73
    96
  0
VERTEX
  5
13BA
330
1193
100
AcDbEntity
  8
0
 62
     7
100
AcDbFaceRecord
 10
0.0
 20
0.0
 30
0.0
 70
   128
 71
   134
 72
    78
 73
    85
  0
VERTEX
  5
13BB
330
1193
100
AcDbEntity
  8
0
 62
     7
100
AcDbFaceRecord
 10
0.0
 20
0.0
 30
0.0
 70
   128
 71
   134
 72
    80
 73
    78
  0
VERTEX
  5
13BC
330
1193
100
AcDbEntity
  8
0
 62
     7
100
AcDbFaceRecord
 10
0.0
 20
0.0
 30
0.0
 70
   128
 71
   134
 72
    81
 73
    80
  0
VERTEX
  5
13BD
330
1193
100
AcDbEntity
  8
0
 62
     7
100
AcDbFaceRecord
 10
0.0
 20
0.0
 30
0.0
 70
   128
 71
    81
 72
   134
 73
    95
  0
VERTEX
  5
13BE
330
1193
100
AcDbEntity
  8
0
 62
     7
100
AcDbFaceRecord
 10
0.0
 20
0.0
 30
0.0
 70
   128
 71
   135
 72
   103
 73
   102
  0
VERTEX
  5
13BF
330
1193
100
AcDbEntity
  8
0
 62
     7
100
AcDbFaceRecord
 10
0.0
 20
0.0
 30
0.0
 70
   128
 71
   135
 72
   100
 73
   103
  0
VERTEX
  5
13C0
330
1193
100
AcDbEntity
  8
0
 62
     7
100
AcDbFaceRecord
 10
0.0
 20
0.0
 30
0.0
 70
   128
 71
   135
 72
    94
 73
   100
  0
VERTEX
  5
13C1
330
1193
100
AcDbEntity
  8
0
 62
     7
100
AcDbFaceRecord
 10
0.0
 20
0.0
 30
0.0
 70
   128
 71
   135
 72
    96
 73
    94
  0
VERTEX
  5
13C2
330
1193
100
AcDbEntity
  8
0
 62
     7
100
AcDbFaceRecord
 10
0.0
 20
0.0
 30
0.0
 70
   128
 71
   135
 72
    97
 73
    96
  0
VERTEX
  5
13C3
330
1193
100
AcDbEntity
  8
0
 62
     7
100
AcDbFaceRecord
 10
0.0
 20
0.0
 30
0.0
 70
   128
 71
    97
 72
   135
 73
   102
  0
VERTEX
  5
13C4
330
1193
100
AcDbEntity
  8
0
 62
     7
100
AcDbFaceRecord
 10
0.0
 20
0.0
 30
0.0
 70
   128
 71
   136
 72
   101
 73
   103
  0
VERTEX
  5
13C5
330
1193
100
AcDbEntity
  8
0
 62
     7
100
AcDbFaceRecord
 10
0.0
 20
0.0
 30
0.0
 70
   128
 71
   137
 72
   111
 73
   113
  0
VERTEX
  5
13C6
330
1193
100
AcDbEntity
  8
0
 62
     7
100
AcDbFaceRecord
 10
0.0
 20
0.0
 30
0.0
 70
   128
 71
   137
 72
   104
 73
   111
  0
VERTEX
  5
13C7
330
1193
100
AcDbEntity
  8
0
 62
     7
100
AcDbFaceRecord
 10
0.0
 20
0.0
 30
0.0
 70
   128
 71
   137
 72
   100
 73
   104
  0
VERTEX
  5
13C8
330
1193
100
AcDbEntity
  8
0
 62
     7
100
AcDbFaceRecord
 10
0.0
 20
0.0
 30
0.0
 70
   128
 71
   137
 72
   103
 73
   100
  0
VERTEX
  5
13C9
330
1193
100
AcDbEntity
  8
0
 62
     7
100
AcDbFaceRecord
 10
0.0
 20
0.0
 30
0.0
 70
   128
 71
   137
 72
   136
 73
   103
  0
VERTEX
  5
13CA
330
1193
100
AcDbEntity
  8
0
 62
     7
100
AcDbFaceRecord
 10
0.0
 20
0.0
 30
0.0
 70
   128
 71
   136
 72
   137
 73
   113
  0
VERTEX
  5
13CB
330
1193
100
AcDbEntity
  8
0
 62
     7
100
AcDbFaceRecord
 10
0.0
 20
0.0
 30
0.0
 70
   128
 71
   138
 72
   112
 73
   111
  0
VERTEX
  5
13CC
330
1193
100
AcDbEntity
  8
0
 62
     7
100
AcDbFaceRecord
 10
0.0
 20
0.0
 30
0.0
 70
   128
 71
   139
 72
   106
 73
   109
  0
VERTEX
  5
13CD
330
1193
100
AcDbEntity
  8
0
 62
     7
100
AcDbFaceRecord
 10
0.0
 20
0.0
 30
0.0
 70
   128
 71
   139
 72
   107
 73
   106
  0
VERTEX
  5
13CE
330
1193
100
AcDbEntity
  8
0
 62
     7
100
AcDbFaceRecord
 10
0.0
 20
0.0
 30
0.0
 70
   128
 71
   139
 72
   110
 73
   107
  0
VERTEX
  5
13CF
330
1193
100
AcDbEntity
  8
0
 62
     7
100
AcDbFaceRecord
 10
0.0
 20
0.0
 30
0.0
 70
   128
 71
   139
 72
   111
 73
   110
  0
VERTEX
  5
13D0
330
1193
100
AcDbEntity
  8
0
 62
     7
100
AcDbFaceRecord
 10
0.0
 20
0.0
 30
0.0
 70
   128
 71
   139
 72
   138
 73
   111
  0
VERTEX
  5
13D1
330
1193
100
AcDbEntity
  8
0
 62
     7
100
AcDbFaceRecord
 10
0.0
 20
0.0
 30
0.0
 70
   128
 71
   138
 72
   139
 73
   109
  0
VERTEX
  5
13D2
330
1193
100
AcDbEntity
  8
0
 62
     7
100
AcDbFaceRecord
 10
0.0
 20
0.0
 30
0.0
 70
   128
 71
   140
 72
   105
 73
   116
  0
VERTEX
  5
13D3
330
1193
100
AcDbEntity
  8
0
 62
     7
100
AcDbFaceRecord
 10
0.0
 20
0.0
 30
0.0
 70
   128
 71
   140
 72
   106
 73
   105
  0
VERTEX
  5
13D4
330
1193
100
AcDbEntity
  8
0
 62
     7
100
AcDbFaceRecord
 10
0.0
 20
0.0
 30
0.0
 70
   128
 71
   140
 72
   108
 73
   106
  0
VERTEX
  5
13D5
330
1193
100
AcDbEntity
  8
0
 62
     7
100
AcDbFaceRecord
 10
0.0
 20
0.0
 30
0.0
 70
   128
 71
   141
 72
   108
 73
   140
  0
VERTEX
  5
13D6
330
1193
100
AcDbEntity
  8
0
 62
     7
100
AcDbFaceRecord
 10
0.0
 20
0.0
 30
0.0
 70
   128
 71
   141
 72
   140
 73
   116
  0
VERTEX
  5
13D7
330
1193
100
AcDbEntity
  8
0
 62
     7
100
AcDbFaceRecord
 10
0.0
 20
0.0
 30
0.0
 70
   128
 71
    95
 72
   142
 73
   143
  0
VERTEX
  5
13D8
330
1193
100
AcDbEntity
  8
0
 62
     7
100
AcDbFaceRecord
 10
0.0
 20
0.0
 30
0.0
 70
   128
 71
   102
 72
   101
 73
   144
  0
VERTEX
  5
13D9
330
1193
100
AcDbEntity
  8
0
 62
     7
100
AcDbFaceRecord
 10
0.0
 20
0.0
 30
0.0
 70
   128
 71
    97
 72
   102
 73
   144
  0
VERTEX
  5
13DA
330
1193
100
AcDbEntity
  8
0
 62
     7
100
AcDbFaceRecord
 10
0.0
 20
0.0
 30
0.0
 70
   128
 71
    81
 72
    95
 73
   143
  0
VERTEX
  5
13DB
330
1193
100
AcDbEntity
  8
0
 62
     7
100
AcDbFaceRecord
 10
0.0
 20
0.0
 30
0.0
 70
   128
 71
   145
 72
    79
 73
   146
  0
VERTEX
  5
13DC
330
1193
100
AcDbEntity
  8
0
 62
     7
100
AcDbFaceRecord
 10
0.0
 20
0.0
 30
0.0
 70
   128
 71
    72
 72
    79
 73
   145
  0
VERTEX
  5
13DD
330
1193
100
AcDbEntity
  8
0
 62
     7
100
AcDbFaceRecord
 10
0.0
 20
0.0
 30
0.0
 70
   128
 71
   147
 72
    70
 73
   148
  0
VERTEX
  5
13DE
330
1193
100
AcDbEntity
  8
0
 62
     7
100
AcDbFaceRecord
 10
0.0
 20
0.0
 30
0.0
 70
   128
 71
    62
 72
    70
 73
   147
  0
VERTEX
  5
13DF
330
1193
100
AcDbEntity
  8
0
 62
     7
100
AcDbFaceRecord
 10
0.0
 20
0.0
 30
0.0
 70
   128
 71
   149
 72
    61
 73
   150
  0
VERTEX
  5
13E0
330
1193
100
AcDbEntity
  8
0
 62
     7
100
AcDbFaceRecord
 10
0.0
 20
0.0
 30
0.0
 70
   128
 71
    32
 72
    61
 73
   149
  0
VERTEX
  5
13E1
330
1193
100
AcDbEntity
  8
0
 62
     7
100
AcDbFaceRecord
 10
0.0
 20
0.0
 30
0.0
 70
   128
 71
   151
 72
    30
 73
   152
  0
VERTEX
  5
13E2
330
1193
100
AcDbEntity
  8
0
 62
     7
100
AcDbFaceRecord
 10
0.0
 20
0.0
 30
0.0
 70
   128
 71
    18
 72
    30
 73
   151
  0
VERTEX
  5
13E3
330
1193
100
AcDbEntity
  8
0
 62
     7
100
AcDbFaceRecord
 10
0.0
 20
0.0
 30
0.0
 70
   128
 71
   153
 72
    16
 73
   154
  0
VERTEX
  5
13E4
330
1193
100
AcDbEntity
  8
0
 62
     7
100
AcDbFaceRecord
 10
0.0
 20
0.0
 30
0.0
 70
   128
 71
   128
 72
    16
 73
   153
  0
VERTEX
  5
13E5
330
1193
100
AcDbEntity
  8
0
 62
     7
100
AcDbFaceRecord
 10
0.0
 20
0.0
 30
0.0
 70
   128
 71
   155
 72
     4
 73
   128
  0
VERTEX
  5
13E6
330
1193
100
AcDbEntity
  8
0
 62
     7
100
AcDbFaceRecord
 10
0.0
 20
0.0
 30
0.0
 70
   128
 71
   155
 72
   128
 73
   153
  0
VERTEX
  5
13E7
330
1193
100
AcDbEntity
  8
0
 62
     7
100
AcDbFaceRecord
 10
0.0
 20
0.0
 30
0.0
 70
   128
 71
    18
 72
   154
 73
    16
  0
VERTEX
  5
13E8
330
1193
100
AcDbEntity
  8
0
 62
     7
100
AcDbFaceRecord
 10
0.0
 20
0.0
 30
0.0
 70
   128
 71
   154
 72
    18
 73
   151
  0
VERTEX
  5
13E9
330
1193
100
AcDbEntity
  8
0
 62
     7
100
AcDbFaceRecord
 10
0.0
 20
0.0
 30
0.0
 70
   128
 71
    32
 72
   152
 73
    30
  0
VERTEX
  5
13EA
330
1193
100
AcDbEntity
  8
0
 62
     7
100
AcDbFaceRecord
 10
0.0
 20
0.0
 30
0.0
 70
   128
 71
   152
 72
    32
 73
   149
  0
VERTEX
  5
13EB
330
1193
100
AcDbEntity
  8
0
 62
     7
100
AcDbFaceRecord
 10
0.0
 20
0.0
 30
0.0
 70
   128
 71
    62
 72
   150
 73
    61
  0
VERTEX
  5
13EC
330
1193
100
AcDbEntity
  8
0
 62
     7
100
AcDbFaceRecord
 10
0.0
 20
0.0
 30
0.0
 70
   128
 71
   150
 72
    62
 73
   147
  0
VERTEX
  5
13ED
330
1193
100
AcDbEntity
  8
0
 62
     7
100
AcDbFaceRecord
 10
0.0
 20
0.0
 30
0.0
 70
   128
 71
    72
 72
   148
 73
    70
  0
VERTEX
  5
13EE
330
1193
100
AcDbEntity
  8
0
 62
     7
100
AcDbFaceRecord
 10
0.0
 20
0.0
 30
0.0
 70
   128
 71
   148
 72
    72
 73
   145
  0
VERTEX
  5
13EF
330
1193
100
AcDbEntity
  8
0
 62
     7
100
AcDbFaceRecord
 10
0.0
 20
0.0
 30
0.0
 70
   128
 71
    81
 72
   146
 73
    79
  0
VERTEX
  5
13F0
330
1193
100
AcDbEntity
  8
0
 62
     7
100
AcDbFaceRecord
 10
0.0
 20
0.0
 30
0.0
 70
   128
 71
   146
 72
    81
 73
   143
  0
VERTEX
  5
13F1
330
1193
100
AcDbEntity
  8
0
 62
     7
100
AcDbFaceRecord
 10
0.0
 20
0.0
 30
0.0
 70
   128
 71
   156
 72
   142
 73
    95
  0
VERTEX
  5
13F2
330
1193
100
AcDbEntity
  8
0
 62
     7
100
AcDbFaceRecord
 10
0.0
 20
0.0
 30
0.0
 70
   128
 71
    97
 72
   156
 73
    95
  0
VERTEX
  5
13F3
330
1193
100
AcDbEntity
  8
0
 62
     7
100
AcDbFaceRecord
 10
0.0
 20
0.0
 30
0.0
 70
   128
 71
   156
 72
    97
 73
   144
  0
VERTEX
  5
13F4
330
1193
100
AcDbEntity
  8
0
 62
     7
100
AcDbFaceRecord
 10
0.0
 20
0.0
 30
0.0
 70
   128
 71
   157
 72
   144
 73
   101
  0
VERTEX
  5
13F5
330
1193
100
AcDbEntity
  8
0
 62
     7
100
AcDbFaceRecord
 10
0.0
 20
0.0
 30
0.0
 70
   128
 71
   158
 72
   156
 73
   159
  0
VERTEX
  5
13F6
330
1193
100
AcDbEntity
  8
0
 62
     7
100
AcDbFaceRecord
 10
0.0
 20
0.0
 30
0.0
 70
   128
 71
   142
 72
   156
 73
   158
  0
VERTEX
  5
13F7
330
1193
100
AcDbEntity
  8
0
 62
     7
100
AcDbFaceRecord
 10
0.0
 20
0.0
 30
0.0
 70
   128
 71
   160
 72
   143
 73
   161
  0
VERTEX
  5
13F8
330
1193
100
AcDbEntity
  8
0
 62
     7
100
AcDbFaceRecord
 10
0.0
 20
0.0
 30
0.0
 70
   128
 71
   146
 72
   143
 73
   160
  0
VERTEX
  5
13F9
330
1193
100
AcDbEntity
  8
0
 62
     7
100
AcDbFaceRecord
 10
0.0
 20
0.0
 30
0.0
 70
   128
 71
   162
 72
   145
 73
   163
  0
VERTEX
  5
13FA
330
1193
100
AcDbEntity
  8
0
 62
     7
100
AcDbFaceRecord
 10
0.0
 20
0.0
 30
0.0
 70
   128
 71
   148
 72
   145
 73
   162
  0
VERTEX
  5
13FB
330
1193
100
AcDbEntity
  8
0
 62
     7
100
AcDbFaceRecord
 10
0.0
 20
0.0
 30
0.0
 70
   128
 71
   164
 72
   147
 73
   165
  0
VERTEX
  5
13FC
330
1193
100
AcDbEntity
  8
0
 62
     7
100
AcDbFaceRecord
 10
0.0
 20
0.0
 30
0.0
 70
   128
 71
   150
 72
   147
 73
   164
  0
VERTEX
  5
13FD
330
1193
100
AcDbEntity
  8
0
 62
     7
100
AcDbFaceRecord
 10
0.0
 20
0.0
 30
0.0
 70
   128
 71
   166
 72
   149
 73
   167
  0
VERTEX
  5
13FE
330
1193
100
AcDbEntity
  8
0
 62
     7
100
AcDbFaceRecord
 10
0.0
 20
0.0
 30
0.0
 70
   128
 71
   152
 72
   149
 73
   166
  0
VERTEX
  5
13FF
330
1193
100
AcDbEntity
  8
0
 62
     7
100
AcDbFaceRecord
 10
0.0
 20
0.0
 30
0.0
 70
   128
 71
   168
 72
   151
 73
   169
  0
VERTEX
  5
1400
330
1193
100
AcDbEntity
  8
0
 62
     7
100
AcDbFaceRecord
 10
0.0
 20
0.0
 30
0.0
 70
   128
 71
   154
 72
   151
 73
   168
  0
VERTEX
  5
1401
330
1193
100
AcDbEntity
  8
0
 62
     7
100
AcDbFaceRecord
 10
0.0
 20
0.0
 30
0.0
 70
   128
 71
   170
 72
   153
 73
   171
  0
VERTEX
  5
1402
330
1193
100
AcDbEntity
  8
0
 62
     7
100
AcDbFaceRecord
 10
0.0
 20
0.0
 30
0.0
 70
   128
 71
   155
 72
   153
 73
   170
  0
VERTEX
  5
1403
330
1193
100
AcDbEntity
  8
0
 62
     7
100
AcDbFaceRecord
 10
0.0
 20
0.0
 30
0.0
 70
   128
 71
   154
 72
   171
 73
   153
  0
VERTEX
  5
1404
330
1193
100
AcDbEntity
  8
0
 62
     7
100
AcDbFaceRecord
 10
0.0
 20
0.0
 30
0.0
 70
   128
 71
   171
 72
   154
 73
   168
  0
VERTEX
  5
1405
330
1193
100
AcDbEntity
  8
0
 62
     7
100
AcDbFaceRecord
 10
0.0
 20
0.0
 30
0.0
 70
   128
 71
   152
 72
   169
 73
   151
  0
VERTEX
  5
1406
330
1193
100
AcDbEntity
  8
0
 62
     7
100
AcDbFaceRecord
 10
0.0
 20
0.0
 30
0.0
 70
   128
 71
   169
 72
   152
 73
   166
  0
VERTEX
  5
1407
330
1193
100
AcDbEntity
  8
0
 62
     7
100
AcDbFaceRecord
 10
0.0
 20
0.0
 30
0.0
 70
   128
 71
   150
 72
   167
 73
   149
  0
VERTEX
  5
1408
330
1193
100
AcDbEntity
  8
0
 62
     7
100
AcDbFaceRecord
 10
0.0
 20
0.0
 30
0.0
 70
   128
 71
   167
 72
   150
 73
   164
  0
VERTEX
  5
1409
330
1193
100
AcDbEntity
  8
0
 62
     7
100
AcDbFaceRecord
 10
0.0
 20
0.0
 30
0.0
 70
   128
 71
   148
 72
   165
 73
   147
  0
VERTEX
  5
140A
330
1193
100
AcDbEntity
  8
0
 62
     7
100
AcDbFaceRecord
 10
0.0
 20
0.0
 30
0.0
 70
   128
 71
   165
 72
   148
 73
   162
  0
VERTEX
  5
140B
330
1193
100
AcDbEntity
  8
0
 62
     7
100
AcDbFaceRecord
 10
0.0
 20
0.0
 30
0.0
 70
   128
 71
   146
 72
   163
 73
   145
  0
VERTEX
  5
140C
330
1193
100
AcDbEntity
  8
0
 62
     7
100
AcDbFaceRecord
 10
0.0
 20
0.0
 30
0.0
 70
   128
 71
   163
 72
   146
 73
   160
  0
VERTEX
  5
140D
330
1193
100
AcDbEntity
  8
0
 62
     7
100
AcDbFaceRecord
 10
0.0
 20
0.0
 30
0.0
 70
   128
 71
   142
 72
   161
 73
   143
  0
VERTEX
  5
140E
330
1193
100
AcDbEntity
  8
0
 62
     7
100
AcDbFaceRecord
 10
0.0
 20
0.0
 30
0.0
 70
   128
 71
   161
 72
   142
 73
   158
  0
VERTEX
  5
140F
330
1193
100
AcDbEntity
  8
0
 62
     7
100
AcDbFaceRecord
 10
0.0
 20
0.0
 30
0.0
 70
   128
 71
   144
 72
   159
 73
   156
  0
VERTEX
  5
1410
330
1193
100
AcDbEntity
  8
0
 62
     7
100
AcDbFaceRecord
 10
0.0
 20
0.0
 30
0.0
 70
   128
 71
   172
 72
   159
 73
   144
  0
VERTEX
  5
1411
330
1193
100
AcDbEntity
  8
0
 62
     7
100
AcDbFaceRecord
 10
0.0
 20
0.0
 30
0.0
 70
   128
 71
   157
 72
   172
 73
   144
  0
VERTEX
  5
1412
330
1193
100
AcDbEntity
  8
0
 62
     7
100
AcDbFaceRecord
 10
0.0
 20
0.0
 30
0.0
 70
   128
 71
   164
 72
   173
 73
   174
  0
VERTEX
  5
1413
330
1193
100
AcDbEntity
  8
0
 62
     7
100
AcDbFaceRecord
 10
0.0
 20
0.0
 30
0.0
 70
   128
 71
   175
 72
   159
 73
   176
  0
VERTEX
  5
1414
330
1193
100
AcDbEntity
  8
0
 62
     7
100
AcDbFaceRecord
 10
0.0
 20
0.0
 30
0.0
 70
   128
 71
   158
 72
   159
 73
   175
  0
VERTEX
  5
1415
330
1193
100
AcDbEntity
  8
0
 62
     7
100
AcDbFaceRecord
 10
0.0
 20
0.0
 30
0.0
 70
   128
 71
   177
 72
   161
 73
   178
  0
VERTEX
  5
1416
330
1193
100
AcDbEntity
  8
0
 62
     7
100
AcDbFaceRecord
 10
0.0
 20
0.0
 30
0.0
 70
   128
 71
   160
 72
   161
 73
   177
  0
VERTEX
  5
1417
330
1193
100
AcDbEntity
  8
0
 62
     7
100
AcDbFaceRecord
 10
0.0
 20
0.0
 30
0.0
 70
   128
 71
   179
 72
   163
 73
   180
  0
VERTEX
  5
1418
330
1193
100
AcDbEntity
  8
0
 62
     7
100
AcDbFaceRecord
 10
0.0
 20
0.0
 30
0.0
 70
   128
 71
   162
 72
   163
 73
   179
  0
VERTEX
  5
1419
330
1193
100
AcDbEntity
  8
0
 62
     7
100
AcDbFaceRecord
 10
0.0
 20
0.0
 30
0.0
 70
   128
 71
   165
 72
   162
 73
   179
  0
VERTEX
  5
141A
330
1193
100
AcDbEntity
  8
0
 62
     7
100
AcDbFaceRecord
 10
0.0
 20
0.0
 30
0.0
 70
   128
 71
   167
 72
   164
 73
   174
  0
VERTEX
  5
141B
330
1193
100
AcDbEntity
  8
0
 62
     7
100
AcDbFaceRecord
 10
0.0
 20
0.0
 30
0.0
 70
   128
 71
   181
 72
   166
 73
   182
  0
VERTEX
  5
141C
330
1193
100
AcDbEntity
  8
0
 62
     7
100
AcDbFaceRecord
 10
0.0
 20
0.0
 30
0.0
 70
   128
 71
   169
 72
   166
 73
   181
  0
VERTEX
  5
141D
330
1193
100
AcDbEntity
  8
0
 62
     7
100
AcDbFaceRecord
 10
0.0
 20
0.0
 30
0.0
 70
   128
 71
   183
 72
   168
 73
   184
  0
VERTEX
  5
141E
330
1193
100
AcDbEntity
  8
0
 62
     7
100
AcDbFaceRecord
 10
0.0
 20
0.0
 30
0.0
 70
   128
 71
   171
 72
   168
 73
   183
  0
VERTEX
  5
141F
330
1193
100
AcDbEntity
  8
0
 62
     7
100
AcDbFaceRecord
 10
0.0
 20
0.0
 30
0.0
 70
   128
 71
   185
 72
   170
 73
   171
  0
VERTEX
  5
1420
330
1193
100
AcDbEntity
  8
0
 62
     7
100
AcDbFaceRecord
 10
0.0
 20
0.0
 30
0.0
 70
   128
 71
   185
 72
   171
 73
   183
  0
VERTEX
  5
1421
330
1193
100
AcDbEntity
  8
0
 62
     7
100
AcDbFaceRecord
 10
0.0
 20
0.0
 30
0.0
 70
   128
 71
   169
 72
   184
 73
   168
  0
VERTEX
  5
1422
330
1193
100
AcDbEntity
  8
0
 62
     7
100
AcDbFaceRecord
 10
0.0
 20
0.0
 30
0.0
 70
   128
 71
   184
 72
   169
 73
   181
  0
VERTEX
  5
1423
330
1193
100
AcDbEntity
  8
0
 62
     7
100
AcDbFaceRecord
 10
0.0
 20
0.0
 30
0.0
 70
   128
 71
   167
 72
   182
 73
   166
  0
VERTEX
  5
1424
330
1193
100
AcDbEntity
  8
0
 62
     7
100
AcDbFaceRecord
 10
0.0
 20
0.0
 30
0.0
 70
   128
 71
   182
 72
   167
 73
   174
  0
VERTEX
  5
1425
330
1193
100
AcDbEntity
  8
0
 62
     7
100
AcDbFaceRecord
 10
0.0
 20
0.0
 30
0.0
 70
   128
 71
   186
 72
   173
 73
   164
  0
VERTEX
  5
1426
330
1193
100
AcDbEntity
  8
0
 62
     7
100
AcDbFaceRecord
 10
0.0
 20
0.0
 30
0.0
 70
   128
 71
   165
 72
   186
 73
   164
  0
VERTEX
  5
1427
330
1193
100
AcDbEntity
  8
0
 62
     7
100
AcDbFaceRecord
 10
0.0
 20
0.0
 30
0.0
 70
   128
 71
   186
 72
   165
 73
   179
  0
VERTEX
  5
1428
330
1193
100
AcDbEntity
  8
0
 62
     7
100
AcDbFaceRecord
 10
0.0
 20
0.0
 30
0.0
 70
   128
 71
   160
 72
   180
 73
   163
  0
VERTEX
  5
1429
330
1193
100
AcDbEntity
  8
0
 62
     7
100
AcDbFaceRecord
 10
0.0
 20
0.0
 30
0.0
 70
   128
 71
   180
 72
   160
 73
   177
  0
VERTEX
  5
142A
330
1193
100
AcDbEntity
  8
0
 62
     7
100
AcDbFaceRecord
 10
0.0
 20
0.0
 30
0.0
 70
   128
 71
   158
 72
   178
 73
   161
  0
VERTEX
  5
142B
330
1193
100
AcDbEntity
  8
0
 62
     7
100
AcDbFaceRecord
 10
0.0
 20
0.0
 30
0.0
 70
   128
 71
   178
 72
   158
 73
   175
  0
VERTEX
  5
142C
330
1193
100
AcDbEntity
  8
0
 62
     7
100
AcDbFaceRecord
 10
0.0
 20
0.0
 30
0.0
 70
   128
 71
   172
 72
   176
 73
   159
  0
VERTEX
  5
142D
330
1193
100
AcDbEntity
  8
0
 62
     7
100
AcDbFaceRecord
 10
0.0
 20
0.0
 30
0.0
 70
   128
 71
   187
 72
   176
 73
   172
  0
VERTEX
  5
142E
330
1193
100
AcDbEntity
  8
0
 62
     7
100
AcDbFaceRecord
 10
0.0
 20
0.0
 30
0.0
 70
   128
 71
   188
 72
   176
 73
   189
  0
VERTEX
  5
142F
330
1193
100
AcDbEntity
  8
0
 62
     7
100
AcDbFaceRecord
 10
0.0
 20
0.0
 30
0.0
 70
   128
 71
   175
 72
   176
 73
   188
  0
VERTEX
  5
1430
330
1193
100
AcDbEntity
  8
0
 62
     7
100
AcDbFaceRecord
 10
0.0
 20
0.0
 30
0.0
 70
   128
 71
   190
 72
   178
 73
   191
  0
VERTEX
  5
1431
330
1193
100
AcDbEntity
  8
0
 62
     7
100
AcDbFaceRecord
 10
0.0
 20
0.0
 30
0.0
 70
   128
 71
   177
 72
   178
 73
   190
  0
VERTEX
  5
1432
330
1193
100
AcDbEntity
  8
0
 62
     7
100
AcDbFaceRecord
 10
0.0
 20
0.0
 30
0.0
 70
   128
 71
   192
 72
   180
 73
   193
  0
VERTEX
  5
1433
330
1193
100
AcDbEntity
  8
0
 62
     7
100
AcDbFaceRecord
 10
0.0
 20
0.0
 30
0.0
 70
   128
 71
   179
 72
   180
 73
   192
  0
VERTEX
  5
1434
330
1193
100
AcDbEntity
  8
0
 62
     7
100
AcDbFaceRecord
 10
0.0
 20
0.0
 30
0.0
 70
   128
 71
   194
 72
   186
 73
   195
  0
VERTEX
  5
1435
330
1193
100
AcDbEntity
  8
0
 62
     7
100
AcDbFaceRecord
 10
0.0
 20
0.0
 30
0.0
 70
   128
 71
   173
 72
   186
 73
   194
  0
VERTEX
  5
1436
330
1193
100
AcDbEntity
  8
0
 62
     7
100
AcDbFaceRecord
 10
0.0
 20
0.0
 30
0.0
 70
   128
 71
   196
 72
   174
 73
   197
  0
VERTEX
  5
1437
330
1193
100
AcDbEntity
  8
0
 62
     7
100
AcDbFaceRecord
 10
0.0
 20
0.0
 30
0.0
 70
   128
 71
   182
 72
   174
 73
   196
  0
VERTEX
  5
1438
330
1193
100
AcDbEntity
  8
0
 62
     7
100
AcDbFaceRecord
 10
0.0
 20
0.0
 30
0.0
 70
   128
 71
   198
 72
   181
 73
   199
  0
VERTEX
  5
1439
330
1193
100
AcDbEntity
  8
0
 62
     7
100
AcDbFaceRecord
 10
0.0
 20
0.0
 30
0.0
 70
   128
 71
   184
 72
   181
 73
   198
  0
VERTEX
  5
143A
330
1193
100
AcDbEntity
  8
0
 62
     7
100
AcDbFaceRecord
 10
0.0
 20
0.0
 30
0.0
 70
   128
 71
   200
 72
   183
 73
   201
  0
VERTEX
  5
143B
330
1193
100
AcDbEntity
  8
0
 62
     7
100
AcDbFaceRecord
 10
0.0
 20
0.0
 30
0.0
 70
   128
 71
   185
 72
   183
 73
   200
  0
VERTEX
  5
143C
330
1193
100
AcDbEntity
  8
0
 62
     7
100
AcDbFaceRecord
 10
0.0
 20
0.0
 30
0.0
 70
   128
 71
   202
 72
   185
 73
   200
  0
VERTEX
  5
143D
330
1193
100
AcDbEntity
  8
0
 62
     7
100
AcDbFaceRecord
 10
0.0
 20
0.0
 30
0.0
 70
   128
 71
   184
 72
   201
 73
   183
  0
VERTEX
  5
143E
330
1193
100
AcDbEntity
  8
0
 62
     7
100
AcDbFaceRecord
 10
0.0
 20
0.0
 30
0.0
 70
   128
 71
   201
 72
   184
 73
   198
  0
VERTEX
  5
143F
330
1193
100
AcDbEntity
  8
0
 62
     7
100
AcDbFaceRecord
 10
0.0
 20
0.0
 30
0.0
 70
   128
 71
   182
 72
   199
 73
   181
  0
VERTEX
  5
1440
330
1193
100
AcDbEntity
  8
0
 62
     7
100
AcDbFaceRecord
 10
0.0
 20
0.0
 30
0.0
 70
   128
 71
   199
 72
   182
 73
   196
  0
VERTEX
  5
1441
330
1193
100
AcDbEntity
  8
0
 62
     7
100
AcDbFaceRecord
 10
0.0
 20
0.0
 30
0.0
 70
   128
 71
   173
 72
   197
 73
   174
  0
VERTEX
  5
1442
330
1193
100
AcDbEntity
  8
0
 62
     7
100
AcDbFaceRecord
 10
0.0
 20
0.0
 30
0.0
 70
   128
 71
   197
 72
   173
 73
   194
  0
VERTEX
  5
1443
330
1193
100
AcDbEntity
  8
0
 62
     7
100
AcDbFaceRecord
 10
0.0
 20
0.0
 30
0.0
 70
   128
 71
   179
 72
   195
 73
   186
  0
VERTEX
  5
1444
330
1193
100
AcDbEntity
  8
0
 62
     7
100
AcDbFaceRecord
 10
0.0
 20
0.0
 30
0.0
 70
   128
 71
   195
 72
   179
 73
   192
  0
VERTEX
  5
1445
330
1193
100
AcDbEntity
  8
0
 62
     7
100
AcDbFaceRecord
 10
0.0
 20
0.0
 30
0.0
 70
   128
 71
   177
 72
   193
 73
   180
  0
VERTEX
  5
1446
330
1193
100
AcDbEntity
  8
0
 62
     7
100
AcDbFaceRecord
 10
0.0
 20
0.0
 30
0.0
 70
   128
 71
   193
 72
   177
 73
   190
  0
VERTEX
  5
1447
330
1193
100
AcDbEntity
  8
0
 62
     7
100
AcDbFaceRecord
 10
0.0
 20
0.0
 30
0.0
 70
   128
 71
   175
 72
   191
 73
   178
  0
VERTEX
  5
1448
330
1193
100
AcDbEntity
  8
0
 62
     7
100
AcDbFaceRecord
 10
0.0
 20
0.0
 30
0.0
 70
   128
 71
   191
 72
   175
 73
   188
  0
VERTEX
  5
1449
330
1193
100
AcDbEntity
  8
0
 62
     7
100
AcDbFaceRecord
 10
0.0
 20
0.0
 30
0.0
 70
   128
 71
   187
 72
   189
 73
   176
  0
VERTEX
  5
144A
330
1193
100
AcDbEntity
  8
0
 62
     7
100
AcDbFaceRecord
 10
0.0
 20
0.0
 30
0.0
 70
   128
 71
   203
 72
   189
 73
   187
  0
VERTEX
  5
144B
330
1193
100
AcDbEntity
  8
0
 62
     7
100
AcDbFaceRecord
 10
0.0
 20
0.0
 30
0.0
 70
   128
 71
   191
 72
   204
 73
   205
  0
VERTEX
  5
144C
330
1193
100
AcDbEntity
  8
0
 62
     7
100
AcDbFaceRecord
 10
0.0
 20
0.0
 30
0.0
 70
   128
 71
   189
 72
   203
 73
   206
  0
VERTEX
  5
144D
330
1193
100
AcDbEntity
  8
0
 62
     7
100
AcDbFaceRecord
 10
0.0
 20
0.0
 30
0.0
 70
   128
 71
   188
 72
   189
 73
   206
  0
VERTEX
  5
144E
330
1193
100
AcDbEntity
  8
0
 62
     7
100
AcDbFaceRecord
 10
0.0
 20
0.0
 30
0.0
 70
   128
 71
   190
 72
   191
 73
   205
  0
VERTEX
  5
144F
330
1193
100
AcDbEntity
  8
0
 62
     7
100
AcDbFaceRecord
 10
0.0
 20
0.0
 30
0.0
 70
   128
 71
   207
 72
   193
 73
   208
  0
VERTEX
  5
1450
330
1193
100
AcDbEntity
  8
0
 62
     7
100
AcDbFaceRecord
 10
0.0
 20
0.0
 30
0.0
 70
   128
 71
   192
 72
   193
 73
   207
  0
VERTEX
  5
1451
330
1193
100
AcDbEntity
  8
0
 62
     7
100
AcDbFaceRecord
 10
0.0
 20
0.0
 30
0.0
 70
   128
 71
   209
 72
   195
 73
   210
  0
VERTEX
  5
1452
330
1193
100
AcDbEntity
  8
0
 62
     7
100
AcDbFaceRecord
 10
0.0
 20
0.0
 30
0.0
 70
   128
 71
   194
 72
   195
 73
   209
  0
VERTEX
  5
1453
330
1193
100
AcDbEntity
  8
0
 62
     7
100
AcDbFaceRecord
 10
0.0
 20
0.0
 30
0.0
 70
   128
 71
   211
 72
   197
 73
   212
  0
VERTEX
  5
1454
330
1193
100
AcDbEntity
  8
0
 62
     7
100
AcDbFaceRecord
 10
0.0
 20
0.0
 30
0.0
 70
   128
 71
   196
 72
   197
 73
   211
  0
VERTEX
  5
1455
330
1193
100
AcDbEntity
  8
0
 62
     7
100
AcDbFaceRecord
 10
0.0
 20
0.0
 30
0.0
 70
   128
 71
   213
 72
   199
 73
   214
  0
VERTEX
  5
1456
330
1193
100
AcDbEntity
  8
0
 62
     7
100
AcDbFaceRecord
 10
0.0
 20
0.0
 30
0.0
 70
   128
 71
   198
 72
   199
 73
   213
  0
VERTEX
  5
1457
330
1193
100
AcDbEntity
  8
0
 62
     7
100
AcDbFaceRecord
 10
0.0
 20
0.0
 30
0.0
 70
   128
 71
   215
 72
   201
 73
   216
  0
VERTEX
  5
1458
330
1193
100
AcDbEntity
  8
0
 62
     7
100
AcDbFaceRecord
 10
0.0
 20
0.0
 30
0.0
 70
   128
 71
   200
 72
   201
 73
   215
  0
VERTEX
  5
1459
330
1193
100
AcDbEntity
  8
0
 62
     7
100
AcDbFaceRecord
 10
0.0
 20
0.0
 30
0.0
 70
   128
 71
   217
 72
   202
 73
   200
  0
VERTEX
  5
145A
330
1193
100
AcDbEntity
  8
0
 62
     7
100
AcDbFaceRecord
 10
0.0
 20
0.0
 30
0.0
 70
   128
 71
   217
 72
   200
 73
   215
  0
VERTEX
  5
145B
330
1193
100
AcDbEntity
  8
0
 62
     7
100
AcDbFaceRecord
 10
0.0
 20
0.0
 30
0.0
 70
   128
 71
   198
 72
   216
 73
   201
  0
VERTEX
  5
145C
330
1193
100
AcDbEntity
  8
0
 62
     7
100
AcDbFaceRecord
 10
0.0
 20
0.0
 30
0.0
 70
   128
 71
   216
 72
   198
 73
   213
  0
VERTEX
  5
145D
330
1193
100
AcDbEntity
  8
0
 62
     7
100
AcDbFaceRecord
 10
0.0
 20
0.0
 30
0.0
 70
   128
 71
   196
 72
   214
 73
   199
  0
VERTEX
  5
145E
330
1193
100
AcDbEntity
  8
0
 62
     7
100
AcDbFaceRecord
 10
0.0
 20
0.0
 30
0.0
 70
   128
 71
   214
 72
   196
 73
   211
  0
VERTEX
  5
145F
330
1193
100
AcDbEntity
  8
0
 62
     7
100
AcDbFaceRecord
 10
0.0
 20
0.0
 30
0.0
 70
   128
 71
   194
 72
   212
 73
   197
  0
VERTEX
  5
1460
330
1193
100
AcDbEntity
  8
0
 62
     7
100
AcDbFaceRecord
 10
0.0
 20
0.0
 30
0.0
 70
   128
 71
   212
 72
   194
 73
   209
  0
VERTEX
  5
1461
330
1193
100
AcDbEntity
  8
0
 62
     7
100
AcDbFaceRecord
 10
0.0
 20
0.0
 30
0.0
 70
   128
 71
   192
 72
   210
 73
   195
  0
VERTEX
  5
1462
330
1193
100
AcDbEntity
  8
0
 62
     7
100
AcDbFaceRecord
 10
0.0
 20
0.0
 30
0.0
 70
   128
 71
   210
 72
   192
 73
   207
  0
VERTEX
  5
1463
330
1193
100
AcDbEntity
  8
0
 62
     7
100
AcDbFaceRecord
 10
0.0
 20
0.0
 30
0.0
 70
   128
 71
   190
 72
   208
 73
   193
  0
VERTEX
  5
1464
330
1193
100
AcDbEntity
  8
0
 62
     7
100
AcDbFaceRecord
 10
0.0
 20
0.0
 30
0.0
 70
   128
 71
   208
 72
   190
 73
   205
  0
VERTEX
  5
1465
330
1193
100
AcDbEntity
  8
0
 62
     7
100
AcDbFaceRecord
 10
0.0
 20
0.0
 30
0.0
 70
   128
 71
   218
 72
   204
 73
   191
  0
VERTEX
  5
1466
330
1193
100
AcDbEntity
  8
0
 62
     7
100
AcDbFaceRecord
 10
0.0
 20
0.0
 30
0.0
 70
   128
 71
   188
 72
   218
 73
   191
  0
VERTEX
  5
1467
330
1193
100
AcDbEntity
  8
0
 62
     7
100
AcDbFaceRecord
 10
0.0
 20
0.0
 30
0.0
 70
   128
 71
   218
 72
   188
 73
   206
  0
VERTEX
  5
1468
330
1193
100
AcDbEntity
  8
0
 62
     7
100
AcDbFaceRecord
 10
0.0
 20
0.0
 30
0.0
 70
   128
 71
   219
 72
   206
 73
   203
  0
VERTEX
  5
1469
330
1193
100
AcDbEntity
  8
0
 62
     7
100
AcDbFaceRecord
 10
0.0
 20
0.0
 30
0.0
 70
   128
 71
   220
 72
   221
 73
   222
  0
VERTEX
  5
146A
330
1193
100
AcDbEntity
  8
0
 62
     7
100
AcDbFaceRecord
 10
0.0
 20
0.0
 30
0.0
 70
   128
 71
   223
 72
   220
 73
   222
  0
VERTEX
  5
146B
330
1193
100
AcDbEntity
  8
0
 62
     7
100
AcDbFaceRecord
 10
0.0
 20
0.0
 30
0.0
 70
   128
 71
   224
 72
   225
 73
   226
  0
VERTEX
  5
146C
330
1193
100
AcDbEntity
  8
0
 62
     7
100
AcDbFaceRecord
 10
0.0
 20
0.0
 30
0.0
 70
   128
 71
   227
 72
   228
 73
   229
  0
VERTEX
  5
146D
330
1193
100
AcDbEntity
  8
0
 62
     7
100
AcDbFaceRecord
 10
0.0
 20
0.0
 30
0.0
 70
   128
 71
   215
 72
   216
 73
   230
  0
VERTEX
  5
146E
330
1193
100
AcDbEntity
  8
0
 62
     7
100
AcDbFaceRecord
 10
0.0
 20
0.0
 30
0.0
 70
   128
 71
   231
 72
   232
 73
   233
  0
VERTEX
  5
146F
330
1193
100
AcDbEntity
  8
0
 62
     7
100
AcDbFaceRecord
 10
0.0
 20
0.0
 30
0.0
 70
   128
 71
   226
 72
   233
 73
   232
  0
VERTEX
  5
1470
330
1193
100
AcDbEntity
  8
0
 62
     7
100
AcDbFaceRecord
 10
0.0
 20
0.0
 30
0.0
 70
   128
 71
   234
 72
   235
 73
   236
  0
VERTEX
  5
1471
330
1193
100
AcDbEntity
  8
0
 62
     7
100
AcDbFaceRecord
 10
0.0
 20
0.0
 30
0.0
 70
   128
 71
   237
 72
   238
 73
   229
  0
VERTEX
  5
1472
330
1193
100
AcDbEntity
  8
0
 62
     7
100
AcDbFaceRecord
 10
0.0
 20
0.0
 30
0.0
 70
   128
 71
   237
 72
   239
 73
   238
  0
VERTEX
  5
1473
330
1193
100
AcDbEntity
  8
0
 62
     7
100
AcDbFaceRecord
 10
0.0
 20
0.0
 30
0.0
 70
   128
 71
   240
 72
   238
 73
   239
  0
VERTEX
  5
1474
330
1193
100
AcDbEntity
  8
0
 62
     7
100
AcDbFaceRecord
 10
0.0
 20
0.0
 30
0.0
 70
   128
 71
   240
 72
   233
 73
   238
  0
VERTEX
  5
1475
330
1193
100
AcDbEntity
  8
0
 62
     7
100
AcDbFaceRecord
 10
0.0
 20
0.0
 30
0.0
 70
   128
 71
   240
 72
   231
 73
   233
  0
VERTEX
  5
1476
330
1193
100
AcDbEntity
  8
0
 62
     7
100
AcDbFaceRecord
 10
0.0
 20
0.0
 30
0.0
 70
   128
 71
   235
 72
   232
 73
   231
  0
VERTEX
  5
1477
330
1193
100
AcDbEntity
  8
0
 62
     7
100
AcDbFaceRecord
 10
0.0
 20
0.0
 30
0.0
 70
   128
 71
   241
 72
   231
 73
   240
  0
VERTEX
  5
1478
330
1193
100
AcDbEntity
  8
0
 62
     7
100
AcDbFaceRecord
 10
0.0
 20
0.0
 30
0.0
 70
   128
 71
   213
 72
   214
 73
   242
  0
VERTEX
  5
1479
330
1193
100
AcDbEntity
  8
0
 62
     7
100
AcDbFaceRecord
 10
0.0
 20
0.0
 30
0.0
 70
   128
 71
   243
 72
   237
 73
   230
  0
VERTEX
  5
147A
330
1193
100
AcDbEntity
  8
0
 62
     7
100
AcDbFaceRecord
 10
0.0
 20
0.0
 30
0.0
 70
   128
 71
   243
 72
   239
 73
   237
  0
VERTEX
  5
147B
330
1193
100
AcDbEntity
  8
0
 62
     7
100
AcDbFaceRecord
 10
0.0
 20
0.0
 30
0.0
 70
   128
 71
   243
 72
   244
 73
   239
  0
VERTEX
  5
147C
330
1193
100
AcDbEntity
  8
0
 62
     7
100
AcDbFaceRecord
 10
0.0
 20
0.0
 30
0.0
 70
   128
 71
   245
 72
   239
 73
   244
  0
VERTEX
  5
147D
330
1193
100
AcDbEntity
  8
0
 62
     7
100
AcDbFaceRecord
 10
0.0
 20
0.0
 30
0.0
 70
   128
 71
   245
 72
   240
 73
   239
  0
VERTEX
  5
147E
330
1193
100
AcDbEntity
  8
0
 62
     7
100
AcDbFaceRecord
 10
0.0
 20
0.0
 30
0.0
 70
   128
 71
   245
 72
   241
 73
   240
  0
VERTEX
  5
147F
330
1193
100
AcDbEntity
  8
0
 62
     7
100
AcDbFaceRecord
 10
0.0
 20
0.0
 30
0.0
 70
   128
 71
   246
 72
   241
 73
   245
  0
VERTEX
  5
1480
330
1193
100
AcDbEntity
  8
0
 62
     7
100
AcDbFaceRecord
 10
0.0
 20
0.0
 30
0.0
 70
   128
 71
   247
 72
   248
 73
   249
  0
VERTEX
  5
1481
330
1193
100
AcDbEntity
  8
0
 62
     7
100
AcDbFaceRecord
 10
0.0
 20
0.0
 30
0.0
 70
   128
 71
   250
 72
   244
 73
   243
  0
VERTEX
  5
1482
330
1193
100
AcDbEntity
  8
0
 62
     7
100
AcDbFaceRecord
 10
0.0
 20
0.0
 30
0.0
 70
   128
 71
   250
 72
   251
 73
   244
  0
VERTEX
  5
1483
330
1193
100
AcDbEntity
  8
0
 62
     7
100
AcDbFaceRecord
 10
0.0
 20
0.0
 30
0.0
 70
   128
 71
   252
 72
   244
 73
   251
  0
VERTEX
  5
1484
330
1193
100
AcDbEntity
  8
0
 62
     7
100
AcDbFaceRecord
 10
0.0
 20
0.0
 30
0.0
 70
   128
 71
   252
 72
   245
 73
   244
  0
VERTEX
  5
1485
330
1193
100
AcDbEntity
  8
0
 62
     7
100
AcDbFaceRecord
 10
0.0
 20
0.0
 30
0.0
 70
   128
 71
   252
 72
   246
 73
   245
  0
VERTEX
  5
1486
330
1193
100
AcDbEntity
  8
0
 62
     7
100
AcDbFaceRecord
 10
0.0
 20
0.0
 30
0.0
 70
   128
 71
   248
 72
   241
 73
   246
  0
VERTEX
  5
1487
330
1193
100
AcDbEntity
  8
0
 62
     7
100
AcDbFaceRecord
 10
0.0
 20
0.0
 30
0.0
 70
   128
 71
   253
 72
   246
 73
   252
  0
VERTEX
  5
1488
330
1193
100
AcDbEntity
  8
0
 62
     7
100
AcDbFaceRecord
 10
0.0
 20
0.0
 30
0.0
 70
   128
 71
   211
 72
   212
 73
   254
  0
VERTEX
  5
1489
330
1193
100
AcDbEntity
  8
0
 62
     7
100
AcDbFaceRecord
 10
0.0
 20
0.0
 30
0.0
 70
   128
 71
   255
 72
   256
 73
   257
  0
VERTEX
  5
148A
330
1193
100
AcDbEntity
  8
0
 62
     7
100
AcDbFaceRecord
 10
0.0
 20
0.0
 30
0.0
 70
   128
 71
   258
 72
   250
 73
   242
  0
VERTEX
  5
148B
330
1193
100
AcDbEntity
  8
0
 62
     7
100
AcDbFaceRecord
 10
0.0
 20
0.0
 30
0.0
 70
   128
 71
   258
 72
   251
 73
   250
  0
VERTEX
  5
148C
330
1193
100
AcDbEntity
  8
0
 62
     7
100
AcDbFaceRecord
 10
0.0
 20
0.0
 30
0.0
 70
   128
 71
   258
 72
   256
 73
   251
  0
VERTEX
  5
148D
330
1193
100
AcDbEntity
  8
0
 62
     7
100
AcDbFaceRecord
 10
0.0
 20
0.0
 30
0.0
 70
   128
 71
   258
 72
   257
 73
   256
  0
VERTEX
  5
148E
330
1193
100
AcDbEntity
  8
0
 62
     7
100
AcDbFaceRecord
 10
0.0
 20
0.0
 30
0.0
 70
   128
 71
   259
 72
   251
 73
   256
  0
VERTEX
  5
148F
330
1193
100
AcDbEntity
  8
0
 62
     7
100
AcDbFaceRecord
 10
0.0
 20
0.0
 30
0.0
 70
   128
 71
   259
 72
   252
 73
   251
  0
VERTEX
  5
1490
330
1193
100
AcDbEntity
  8
0
 62
     7
100
AcDbFaceRecord
 10
0.0
 20
0.0
 30
0.0
 70
   128
 71
   259
 72
   253
 73
   252
  0
VERTEX
  5
1491
330
1193
100
AcDbEntity
  8
0
 62
     7
100
AcDbFaceRecord
 10
0.0
 20
0.0
 30
0.0
 70
   128
 71
   260
 72
   253
 73
   259
  0
VERTEX
  5
1492
330
1193
100
AcDbEntity
  8
0
 62
     7
100
AcDbFaceRecord
 10
0.0
 20
0.0
 30
0.0
 70
   128
 71
   261
 72
   262
 73
   263
  0
VERTEX
  5
1493
330
1193
100
AcDbEntity
  8
0
 62
     7
100
AcDbFaceRecord
 10
0.0
 20
0.0
 30
0.0
 70
   128
 71
   264
 72
   257
 73
   254
  0
VERTEX
  5
1494
330
1193
100
AcDbEntity
  8
0
 62
     7
100
AcDbFaceRecord
 10
0.0
 20
0.0
 30
0.0
 70
   128
 71
   264
 72
   255
 73
   257
  0
VERTEX
  5
1495
330
1193
100
AcDbEntity
  8
0
 62
     7
100
AcDbFaceRecord
 10
0.0
 20
0.0
 30
0.0
 70
   128
 71
   265
 72
   256
 73
   255
  0
VERTEX
  5
1496
330
1193
100
AcDbEntity
  8
0
 62
     7
100
AcDbFaceRecord
 10
0.0
 20
0.0
 30
0.0
 70
   128
 71
   265
 72
   259
 73
   256
  0
VERTEX
  5
1497
330
1193
100
AcDbEntity
  8
0
 62
     7
100
AcDbFaceRecord
 10
0.0
 20
0.0
 30
0.0
 70
   128
 71
   265
 72
   260
 73
   259
  0
VERTEX
  5
1498
330
1193
100
AcDbEntity
  8
0
 62
     7
100
AcDbFaceRecord
 10
0.0
 20
0.0
 30
0.0
 70
   128
 71
   266
 72
   265
 73
   255
  0
VERTEX
  5
1499
330
1193
100
AcDbEntity
  8
0
 62
     7
100
AcDbFaceRecord
 10
0.0
 20
0.0
 30
0.0
 70
   128
 71
   262
 72
   253
 73
   260
  0
VERTEX
  5
149A
330
1193
100
AcDbEntity
  8
0
 62
     7
100
AcDbFaceRecord
 10
0.0
 20
0.0
 30
0.0
 70
   128
 71
   267
 72
   262
 73
   260
  0
VERTEX
  5
149B
330
1193
100
AcDbEntity
  8
0
 62
     7
100
AcDbFaceRecord
 10
0.0
 20
0.0
 30
0.0
 70
   128
 71
   268
 72
   255
 73
   264
  0
VERTEX
  5
149C
330
1193
100
AcDbEntity
  8
0
 62
     7
100
AcDbFaceRecord
 10
0.0
 20
0.0
 30
0.0
 70
   128
 71
   268
 72
   266
 73
   255
  0
VERTEX
  5
149D
330
1193
100
AcDbEntity
  8
0
 62
     7
100
AcDbFaceRecord
 10
0.0
 20
0.0
 30
0.0
 70
   128
 71
   269
 72
   265
 73
   266
  0
VERTEX
  5
149E
330
1193
100
AcDbEntity
  8
0
 62
     7
100
AcDbFaceRecord
 10
0.0
 20
0.0
 30
0.0
 70
   128
 71
   269
 72
   260
 73
   265
  0
VERTEX
  5
149F
330
1193
100
AcDbEntity
  8
0
 62
     7
100
AcDbFaceRecord
 10
0.0
 20
0.0
 30
0.0
 70
   128
 71
   269
 72
   267
 73
   260
  0
VERTEX
  5
14A0
330
1193
100
AcDbEntity
  8
0
 62
     7
100
AcDbFaceRecord
 10
0.0
 20
0.0
 30
0.0
 70
   128
 71
   270
 72
   267
 73
   269
  0
VERTEX
  5
14A1
330
1193
100
AcDbEntity
  8
0
 62
     7
100
AcDbFaceRecord
 10
0.0
 20
0.0
 30
0.0
 70
   128
 71
   271
 72
   272
 73
   273
  0
VERTEX
  5
14A2
330
1193
100
AcDbEntity
  8
0
 62
     7
100
AcDbFaceRecord
 10
0.0
 20
0.0
 30
0.0
 70
   128
 71
   274
 72
   268
 73
   264
  0
VERTEX
  5
14A3
330
1193
100
AcDbEntity
  8
0
 62
     7
100
AcDbFaceRecord
 10
0.0
 20
0.0
 30
0.0
 70
   128
 71
   274
 72
   275
 73
   268
  0
VERTEX
  5
14A4
330
1193
100
AcDbEntity
  8
0
 62
     7
100
AcDbFaceRecord
 10
0.0
 20
0.0
 30
0.0
 70
   128
 71
   276
 72
   269
 73
   266
  0
VERTEX
  5
14A5
330
1193
100
AcDbEntity
  8
0
 62
     7
100
AcDbFaceRecord
 10
0.0
 20
0.0
 30
0.0
 70
   128
 71
   276
 72
   270
 73
   269
  0
VERTEX
  5
14A6
330
1193
100
AcDbEntity
  8
0
 62
     7
100
AcDbFaceRecord
 10
0.0
 20
0.0
 30
0.0
 70
   128
 71
   277
 72
   267
 73
   270
  0
VERTEX
  5
14A7
330
1193
100
AcDbEntity
  8
0
 62
     7
100
AcDbFaceRecord
 10
0.0
 20
0.0
 30
0.0
 70
   128
 71
   278
 72
   277
 73
   270
  0
VERTEX
  5
14A8
330
1193
100
AcDbEntity
  8
0
 62
     7
100
AcDbFaceRecord
 10
0.0
 20
0.0
 30
0.0
 70
   128
 71
   279
 72
   268
 73
   275
  0
VERTEX
  5
14A9
330
1193
100
AcDbEntity
  8
0
 62
     7
100
AcDbFaceRecord
 10
0.0
 20
0.0
 30
0.0
 70
   128
 71
   279
 72
   266
 73
   268
  0
VERTEX
  5
14AA
330
1193
100
AcDbEntity
  8
0
 62
     7
100
AcDbFaceRecord
 10
0.0
 20
0.0
 30
0.0
 70
   128
 71
   279
 72
   276
 73
   266
  0
VERTEX
  5
14AB
330
1193
100
AcDbEntity
  8
0
 62
     7
100
AcDbFaceRecord
 10
0.0
 20
0.0
 30
0.0
 70
   128
 71
   279
 72
   280
 73
   276
  0
VERTEX
  5
14AC
330
1193
100
AcDbEntity
  8
0
 62
     7
100
AcDbFaceRecord
 10
0.0
 20
0.0
 30
0.0
 70
   128
 71
   281
 72
   276
 73
   280
  0
VERTEX
  5
14AD
330
1193
100
AcDbEntity
  8
0
 62
     7
100
AcDbFaceRecord
 10
0.0
 20
0.0
 30
0.0
 70
   128
 71
   281
 72
   270
 73
   276
  0
VERTEX
  5
14AE
330
1193
100
AcDbEntity
  8
0
 62
     7
100
AcDbFaceRecord
 10
0.0
 20
0.0
 30
0.0
 70
   128
 71
   281
 72
   278
 73
   270
  0
VERTEX
  5
14AF
330
1193
100
AcDbEntity
  8
0
 62
     7
100
AcDbFaceRecord
 10
0.0
 20
0.0
 30
0.0
 70
   128
 71
   282
 72
   278
 73
   281
  0
VERTEX
  5
14B0
330
1193
100
AcDbEntity
  8
0
 62
     7
100
AcDbFaceRecord
 10
0.0
 20
0.0
 30
0.0
 70
   128
 71
   283
 72
   284
 73
   285
  0
VERTEX
  5
14B1
330
1193
100
AcDbEntity
  8
0
 62
     7
100
AcDbFaceRecord
 10
0.0
 20
0.0
 30
0.0
 70
   128
 71
   207
 72
   208
 73
   286
  0
VERTEX
  5
14B2
330
1193
100
AcDbEntity
  8
0
 62
     7
100
AcDbFaceRecord
 10
0.0
 20
0.0
 30
0.0
 70
   128
 71
   287
 72
   279
 73
   275
  0
VERTEX
  5
14B3
330
1193
100
AcDbEntity
  8
0
 62
     7
100
AcDbFaceRecord
 10
0.0
 20
0.0
 30
0.0
 70
   128
 71
   287
 72
   280
 73
   279
  0
VERTEX
  5
14B4
330
1193
100
AcDbEntity
  8
0
 62
     7
100
AcDbFaceRecord
 10
0.0
 20
0.0
 30
0.0
 70
   128
 71
   287
 72
   288
 73
   280
  0
VERTEX
  5
14B5
330
1193
100
AcDbEntity
  8
0
 62
     7
100
AcDbFaceRecord
 10
0.0
 20
0.0
 30
0.0
 70
   128
 71
   289
 72
   280
 73
   288
  0
VERTEX
  5
14B6
330
1193
100
AcDbEntity
  8
0
 62
     7
100
AcDbFaceRecord
 10
0.0
 20
0.0
 30
0.0
 70
   128
 71
   289
 72
   281
 73
   280
  0
VERTEX
  5
14B7
330
1193
100
AcDbEntity
  8
0
 62
     7
100
AcDbFaceRecord
 10
0.0
 20
0.0
 30
0.0
 70
   128
 71
   289
 72
   282
 73
   281
  0
VERTEX
  5
14B8
330
1193
100
AcDbEntity
  8
0
 62
     7
100
AcDbFaceRecord
 10
0.0
 20
0.0
 30
0.0
 70
   128
 71
   284
 72
   278
 73
   282
  0
VERTEX
  5
14B9
330
1193
100
AcDbEntity
  8
0
 62
     7
100
AcDbFaceRecord
 10
0.0
 20
0.0
 30
0.0
 70
   128
 71
   290
 72
   282
 73
   289
  0
VERTEX
  5
14BA
330
1193
100
AcDbEntity
  8
0
 62
     7
100
AcDbFaceRecord
 10
0.0
 20
0.0
 30
0.0
 70
   128
 71
   291
 72
   288
 73
   287
  0
VERTEX
  5
14BB
330
1193
100
AcDbEntity
  8
0
 62
     7
100
AcDbFaceRecord
 10
0.0
 20
0.0
 30
0.0
 70
   128
 71
   291
 72
   292
 73
   288
  0
VERTEX
  5
14BC
330
1193
100
AcDbEntity
  8
0
 62
     7
100
AcDbFaceRecord
 10
0.0
 20
0.0
 30
0.0
 70
   128
 71
   293
 72
   288
 73
   292
  0
VERTEX
  5
14BD
330
1193
100
AcDbEntity
  8
0
 62
     7
100
AcDbFaceRecord
 10
0.0
 20
0.0
 30
0.0
 70
   128
 71
   293
 72
   289
 73
   288
  0
VERTEX
  5
14BE
330
1193
100
AcDbEntity
  8
0
 62
     7
100
AcDbFaceRecord
 10
0.0
 20
0.0
 30
0.0
 70
   128
 71
   293
 72
   290
 73
   289
  0
VERTEX
  5
14BF
330
1193
100
AcDbEntity
  8
0
 62
     7
100
AcDbFaceRecord
 10
0.0
 20
0.0
 30
0.0
 70
   128
 71
   294
 72
   290
 73
   293
  0
VERTEX
  5
14C0
330
1193
100
AcDbEntity
  8
0
 62
     7
100
AcDbFaceRecord
 10
0.0
 20
0.0
 30
0.0
 70
   128
 71
   295
 72
   296
 73
   297
  0
VERTEX
  5
14C1
330
1193
100
AcDbEntity
  8
0
 62
     7
100
AcDbFaceRecord
 10
0.0
 20
0.0
 30
0.0
 70
   128
 71
   205
 72
   204
 73
   298
  0
VERTEX
  5
14C2
330
1193
100
AcDbEntity
  8
0
 62
     7
100
AcDbFaceRecord
 10
0.0
 20
0.0
 30
0.0
 70
   128
 71
   299
 72
   300
 73
   301
  0
VERTEX
  5
14C3
330
1193
100
AcDbEntity
  8
0
 62
     7
100
AcDbFaceRecord
 10
0.0
 20
0.0
 30
0.0
 70
   128
 71
   302
 72
   291
 73
   286
  0
VERTEX
  5
14C4
330
1193
100
AcDbEntity
  8
0
 62
     7
100
AcDbFaceRecord
 10
0.0
 20
0.0
 30
0.0
 70
   128
 71
   302
 72
   292
 73
   291
  0
VERTEX
  5
14C5
330
1193
100
AcDbEntity
  8
0
 62
     7
100
AcDbFaceRecord
 10
0.0
 20
0.0
 30
0.0
 70
   128
 71
   302
 72
   300
 73
   292
  0
VERTEX
  5
14C6
330
1193
100
AcDbEntity
  8
0
 62
     7
100
AcDbFaceRecord
 10
0.0
 20
0.0
 30
0.0
 70
   128
 71
   302
 72
   301
 73
   300
  0
VERTEX
  5
14C7
330
1193
100
AcDbEntity
  8
0
 62
     7
100
AcDbFaceRecord
 10
0.0
 20
0.0
 30
0.0
 70
   128
 71
   303
 72
   292
 73
   300
  0
VERTEX
  5
14C8
330
1193
100
AcDbEntity
  8
0
 62
     7
100
AcDbFaceRecord
 10
0.0
 20
0.0
 30
0.0
 70
   128
 71
   303
 72
   293
 73
   292
  0
VERTEX
  5
14C9
330
1193
100
AcDbEntity
  8
0
 62
     7
100
AcDbFaceRecord
 10
0.0
 20
0.0
 30
0.0
 70
   128
 71
   303
 72
   294
 73
   293
  0
VERTEX
  5
14CA
330
1193
100
AcDbEntity
  8
0
 62
     7
100
AcDbFaceRecord
 10
0.0
 20
0.0
 30
0.0
 70
   128
 71
   296
 72
   290
 73
   294
  0
VERTEX
  5
14CB
330
1193
100
AcDbEntity
  8
0
 62
     7
100
AcDbFaceRecord
 10
0.0
 20
0.0
 30
0.0
 70
   128
 71
   304
 72
   294
 73
   303
  0
VERTEX
  5
14CC
330
1193
100
AcDbEntity
  8
0
 62
     7
100
AcDbFaceRecord
 10
0.0
 20
0.0
 30
0.0
 70
   128
 71
   305
 72
   301
 73
   298
  0
VERTEX
  5
14CD
330
1193
100
AcDbEntity
  8
0
 62
     7
100
AcDbFaceRecord
 10
0.0
 20
0.0
 30
0.0
 70
   128
 71
   305
 72
   299
 73
   301
  0
VERTEX
  5
14CE
330
1193
100
AcDbEntity
  8
0
 62
     7
100
AcDbFaceRecord
 10
0.0
 20
0.0
 30
0.0
 70
   128
 71
   306
 72
   299
 73
   305
  0
VERTEX
  5
14CF
330
1193
100
AcDbEntity
  8
0
 62
     7
100
AcDbFaceRecord
 10
0.0
 20
0.0
 30
0.0
 70
   128
 71
   307
 72
   300
 73
   299
  0
VERTEX
  5
14D0
330
1193
100
AcDbEntity
  8
0
 62
     7
100
AcDbFaceRecord
 10
0.0
 20
0.0
 30
0.0
 70
   128
 71
   307
 72
   303
 73
   300
  0
VERTEX
  5
14D1
330
1193
100
AcDbEntity
  8
0
 62
     7
100
AcDbFaceRecord
 10
0.0
 20
0.0
 30
0.0
 70
   128
 71
   307
 72
   304
 73
   303
  0
VERTEX
  5
14D2
330
1193
100
AcDbEntity
  8
0
 62
     7
100
AcDbFaceRecord
 10
0.0
 20
0.0
 30
0.0
 70
   128
 71
   308
 72
   304
 73
   307
  0
VERTEX
  5
14D3
330
1193
100
AcDbEntity
  8
0
 62
     7
100
AcDbFaceRecord
 10
0.0
 20
0.0
 30
0.0
 70
   128
 71
   308
 72
   309
 73
   304
  0
VERTEX
  5
14D4
330
1193
100
AcDbEntity
  8
0
 62
     7
100
AcDbFaceRecord
 10
0.0
 20
0.0
 30
0.0
 70
   128
 71
   310
 72
   311
 73
   312
  0
VERTEX
  5
14D5
330
1193
100
AcDbEntity
  8
0
 62
     7
100
AcDbFaceRecord
 10
0.0
 20
0.0
 30
0.0
 70
   128
 71
   313
 72
   311
 73
   310
  0
VERTEX
  5
14D6
330
1193
100
AcDbEntity
  8
0
 62
     7
100
AcDbFaceRecord
 10
0.0
 20
0.0
 30
0.0
 70
   128
 71
   219
 72
   311
 73
   313
  0
VERTEX
  5
14D7
330
1193
100
AcDbEntity
  8
0
 62
     7
100
AcDbFaceRecord
 10
0.0
 20
0.0
 30
0.0
 70
   128
 71
   312
 72
   306
 73
   305
  0
VERTEX
  5
14D8
330
1193
100
AcDbEntity
  8
0
 62
     7
100
AcDbFaceRecord
 10
0.0
 20
0.0
 30
0.0
 70
   128
 71
   312
 72
   314
 73
   306
  0
VERTEX
  5
14D9
330
1193
100
AcDbEntity
  8
0
 62
     7
100
AcDbFaceRecord
 10
0.0
 20
0.0
 30
0.0
 70
   128
 71
   315
 72
   316
 73
   314
  0
VERTEX
  5
14DA
330
1193
100
AcDbEntity
  8
0
 62
     7
100
AcDbFaceRecord
 10
0.0
 20
0.0
 30
0.0
 70
   128
 71
   317
 72
   299
 73
   306
  0
VERTEX
  5
14DB
330
1193
100
AcDbEntity
  8
0
 62
     7
100
AcDbFaceRecord
 10
0.0
 20
0.0
 30
0.0
 70
   128
 71
   317
 72
   307
 73
   299
  0
VERTEX
  5
14DC
330
1193
100
AcDbEntity
  8
0
 62
     7
100
AcDbFaceRecord
 10
0.0
 20
0.0
 30
0.0
 70
   128
 71
   317
 72
   308
 73
   307
  0
VERTEX
  5
14DD
330
1193
100
AcDbEntity
  8
0
 62
     7
100
AcDbFaceRecord
 10
0.0
 20
0.0
 30
0.0
 70
   128
 71
   317
 72
   318
 73
   308
  0
VERTEX
  5
14DE
330
1193
100
AcDbEntity
  8
0
 62
     7
100
AcDbFaceRecord
 10
0.0
 20
0.0
 30
0.0
 70
   128
 71
   319
 72
   320
 73
   318
  0
VERTEX
  5
14DF
330
1193
100
AcDbEntity
  8
0
 62
     7
100
AcDbFaceRecord
 10
0.0
 20
0.0
 30
0.0
 70
   128
 71
   210
 72
   274
 73
   209
  0
VERTEX
  5
14E0
330
1193
100
AcDbEntity
  8
0
 62
     7
100
AcDbFaceRecord
 10
0.0
 20
0.0
 30
0.0
 70
   128
 71
   210
 72
   275
 73
   274
  0
VERTEX
  5
14E1
330
1193
100
AcDbEntity
  8
0
 62
     7
100
AcDbFaceRecord
 10
0.0
 20
0.0
 30
0.0
 70
   128
 71
   309
 72
   321
 73
   322
  0
VERTEX
  5
14E2
330
1193
100
AcDbEntity
  8
0
 62
     7
100
AcDbFaceRecord
 10
0.0
 20
0.0
 30
0.0
 70
   128
 71
   323
 72
   298
 73
   204
  0
VERTEX
  5
14E3
330
1193
100
AcDbEntity
  8
0
 62
     7
100
AcDbFaceRecord
 10
0.0
 20
0.0
 30
0.0
 70
   128
 71
   323
 72
   305
 73
   298
  0
VERTEX
  5
14E4
330
1193
100
AcDbEntity
  8
0
 62
     7
100
AcDbFaceRecord
 10
0.0
 20
0.0
 30
0.0
 70
   128
 71
   323
 72
   312
 73
   305
  0
VERTEX
  5
14E5
330
1193
100
AcDbEntity
  8
0
 62
     7
100
AcDbFaceRecord
 10
0.0
 20
0.0
 30
0.0
 70
   128
 71
   323
 72
   310
 73
   312
  0
VERTEX
  5
14E6
330
1193
100
AcDbEntity
  8
0
 62
     7
100
AcDbFaceRecord
 10
0.0
 20
0.0
 30
0.0
 70
   128
 71
   323
 72
   218
 73
   310
  0
VERTEX
  5
14E7
330
1193
100
AcDbEntity
  8
0
 62
     7
100
AcDbFaceRecord
 10
0.0
 20
0.0
 30
0.0
 70
   128
 71
   218
 72
   323
 73
   204
  0
VERTEX
  5
14E8
330
1193
100
AcDbEntity
  8
0
 62
     7
100
AcDbFaceRecord
 10
0.0
 20
0.0
 30
0.0
 70
   128
 71
   324
 72
   286
 73
   208
  0
VERTEX
  5
14E9
330
1193
100
AcDbEntity
  8
0
 62
     7
100
AcDbFaceRecord
 10
0.0
 20
0.0
 30
0.0
 70
   128
 71
   324
 72
   302
 73
   286
  0
VERTEX
  5
14EA
330
1193
100
AcDbEntity
  8
0
 62
     7
100
AcDbFaceRecord
 10
0.0
 20
0.0
 30
0.0
 70
   128
 71
   324
 72
   301
 73
   302
  0
VERTEX
  5
14EB
330
1193
100
AcDbEntity
  8
0
 62
     7
100
AcDbFaceRecord
 10
0.0
 20
0.0
 30
0.0
 70
   128
 71
   324
 72
   298
 73
   301
  0
VERTEX
  5
14EC
330
1193
100
AcDbEntity
  8
0
 62
     7
100
AcDbFaceRecord
 10
0.0
 20
0.0
 30
0.0
 70
   128
 71
   324
 72
   205
 73
   298
  0
VERTEX
  5
14ED
330
1193
100
AcDbEntity
  8
0
 62
     7
100
AcDbFaceRecord
 10
0.0
 20
0.0
 30
0.0
 70
   128
 71
   205
 72
   324
 73
   208
  0
VERTEX
  5
14EE
330
1193
100
AcDbEntity
  8
0
 62
     7
100
AcDbFaceRecord
 10
0.0
 20
0.0
 30
0.0
 70
   128
 71
   325
 72
   275
 73
   210
  0
VERTEX
  5
14EF
330
1193
100
AcDbEntity
  8
0
 62
     7
100
AcDbFaceRecord
 10
0.0
 20
0.0
 30
0.0
 70
   128
 71
   325
 72
   287
 73
   275
  0
VERTEX
  5
14F0
330
1193
100
AcDbEntity
  8
0
 62
     7
100
AcDbFaceRecord
 10
0.0
 20
0.0
 30
0.0
 70
   128
 71
   325
 72
   291
 73
   287
  0
VERTEX
  5
14F1
330
1193
100
AcDbEntity
  8
0
 62
     7
100
AcDbFaceRecord
 10
0.0
 20
0.0
 30
0.0
 70
   128
 71
   325
 72
   286
 73
   291
  0
VERTEX
  5
14F2
330
1193
100
AcDbEntity
  8
0
 62
     7
100
AcDbFaceRecord
 10
0.0
 20
0.0
 30
0.0
 70
   128
 71
   325
 72
   207
 73
   286
  0
VERTEX
  5
14F3
330
1193
100
AcDbEntity
  8
0
 62
     7
100
AcDbFaceRecord
 10
0.0
 20
0.0
 30
0.0
 70
   128
 71
   207
 72
   325
 73
   210
  0
VERTEX
  5
14F4
330
1193
100
AcDbEntity
  8
0
 62
     7
100
AcDbFaceRecord
 10
0.0
 20
0.0
 30
0.0
 70
   128
 71
   326
 72
   254
 73
   212
  0
VERTEX
  5
14F5
330
1193
100
AcDbEntity
  8
0
 62
     7
100
AcDbFaceRecord
 10
0.0
 20
0.0
 30
0.0
 70
   128
 71
   326
 72
   264
 73
   254
  0
VERTEX
  5
14F6
330
1193
100
AcDbEntity
  8
0
 62
     7
100
AcDbFaceRecord
 10
0.0
 20
0.0
 30
0.0
 70
   128
 71
   326
 72
   274
 73
   264
  0
VERTEX
  5
14F7
330
1193
100
AcDbEntity
  8
0
 62
     7
100
AcDbFaceRecord
 10
0.0
 20
0.0
 30
0.0
 70
   128
 71
   326
 72
   209
 73
   274
  0
VERTEX
  5
14F8
330
1193
100
AcDbEntity
  8
0
 62
     7
100
AcDbFaceRecord
 10
0.0
 20
0.0
 30
0.0
 70
   128
 71
   209
 72
   326
 73
   212
  0
VERTEX
  5
14F9
330
1193
100
AcDbEntity
  8
0
 62
     7
100
AcDbFaceRecord
 10
0.0
 20
0.0
 30
0.0
 70
   128
 71
   327
 72
   242
 73
   214
  0
VERTEX
  5
14FA
330
1193
100
AcDbEntity
  8
0
 62
     7
100
AcDbFaceRecord
 10
0.0
 20
0.0
 30
0.0
 70
   128
 71
   327
 72
   258
 73
   242
  0
VERTEX
  5
14FB
330
1193
100
AcDbEntity
  8
0
 62
     7
100
AcDbFaceRecord
 10
0.0
 20
0.0
 30
0.0
 70
   128
 71
   327
 72
   257
 73
   258
  0
VERTEX
  5
14FC
330
1193
100
AcDbEntity
  8
0
 62
     7
100
AcDbFaceRecord
 10
0.0
 20
0.0
 30
0.0
 70
   128
 71
   327
 72
   254
 73
   257
  0
VERTEX
  5
14FD
330
1193
100
AcDbEntity
  8
0
 62
     7
100
AcDbFaceRecord
 10
0.0
 20
0.0
 30
0.0
 70
   128
 71
   327
 72
   211
 73
   254
  0
VERTEX
  5
14FE
330
1193
100
AcDbEntity
  8
0
 62
     7
100
AcDbFaceRecord
 10
0.0
 20
0.0
 30
0.0
 70
   128
 71
   211
 72
   327
 73
   214
  0
VERTEX
  5
14FF
330
1193
100
AcDbEntity
  8
0
 62
     7
100
AcDbFaceRecord
 10
0.0
 20
0.0
 30
0.0
 70
   128
 71
   328
 72
   230
 73
   216
  0
VERTEX
  5
1500
330
1193
100
AcDbEntity
  8
0
 62
     7
100
AcDbFaceRecord
 10
0.0
 20
0.0
 30
0.0
 70
   128
 71
   328
 72
   243
 73
   230
  0
VERTEX
  5
1501
330
1193
100
AcDbEntity
  8
0
 62
     7
100
AcDbFaceRecord
 10
0.0
 20
0.0
 30
0.0
 70
   128
 71
   328
 72
   250
 73
   243
  0
VERTEX
  5
1502
330
1193
100
AcDbEntity
  8
0
 62
     7
100
AcDbFaceRecord
 10
0.0
 20
0.0
 30
0.0
 70
   128
 71
   328
 72
   242
 73
   250
  0
VERTEX
  5
1503
330
1193
100
AcDbEntity
  8
0
 62
     7
100
AcDbFaceRecord
 10
0.0
 20
0.0
 30
0.0
 70
   128
 71
   328
 72
   213
 73
   242
  0
VERTEX
  5
1504
330
1193
100
AcDbEntity
  8
0
 62
     7
100
AcDbFaceRecord
 10
0.0
 20
0.0
 30
0.0
 70
   128
 71
   213
 72
   328
 73
   216
  0
VERTEX
  5
1505
330
1193
100
AcDbEntity
  8
0
 62
     7
100
AcDbFaceRecord
 10
0.0
 20
0.0
 30
0.0
 70
   128
 71
   329
 72
   229
 73
   228
  0
VERTEX
  5
1506
330
1193
100
AcDbEntity
  8
0
 62
     7
100
AcDbFaceRecord
 10
0.0
 20
0.0
 30
0.0
 70
   128
 71
   329
 72
   237
 73
   229
  0
VERTEX
  5
1507
330
1193
100
AcDbEntity
  8
0
 62
     7
100
AcDbFaceRecord
 10
0.0
 20
0.0
 30
0.0
 70
   128
 71
   329
 72
   230
 73
   237
  0
VERTEX
  5
1508
330
1193
100
AcDbEntity
  8
0
 62
     7
100
AcDbFaceRecord
 10
0.0
 20
0.0
 30
0.0
 70
   128
 71
   329
 72
   215
 73
   230
  0
VERTEX
  5
1509
330
1193
100
AcDbEntity
  8
0
 62
     7
100
AcDbFaceRecord
 10
0.0
 20
0.0
 30
0.0
 70
   128
 71
   217
 72
   215
 73
   329
  0
VERTEX
  5
150A
330
1193
100
AcDbEntity
  8
0
 62
     7
100
AcDbFaceRecord
 10
0.0
 20
0.0
 30
0.0
 70
   128
 71
   217
 72
   329
 73
   228
  0
VERTEX
  5
150B
330
1193
100
AcDbEntity
  8
0
 62
     7
100
AcDbFaceRecord
 10
0.0
 20
0.0
 30
0.0
 70
   128
 71
   330
 72
   226
 73
   225
  0
VERTEX
  5
150C
330
1193
100
AcDbEntity
  8
0
 62
     7
100
AcDbFaceRecord
 10
0.0
 20
0.0
 30
0.0
 70
   128
 71
   330
 72
   233
 73
   226
  0
VERTEX
  5
150D
330
1193
100
AcDbEntity
  8
0
 62
     7
100
AcDbFaceRecord
 10
0.0
 20
0.0
 30
0.0
 70
   128
 71
   330
 72
   238
 73
   233
  0
VERTEX
  5
150E
330
1193
100
AcDbEntity
  8
0
 62
     7
100
AcDbFaceRecord
 10
0.0
 20
0.0
 30
0.0
 70
   128
 71
   330
 72
   229
 73
   238
  0
VERTEX
  5
150F
330
1193
100
AcDbEntity
  8
0
 62
     7
100
AcDbFaceRecord
 10
0.0
 20
0.0
 30
0.0
 70
   128
 71
   330
 72
   227
 73
   229
  0
VERTEX
  5
1510
330
1193
100
AcDbEntity
  8
0
 62
     7
100
AcDbFaceRecord
 10
0.0
 20
0.0
 30
0.0
 70
   128
 71
   331
 72
   227
 73
   330
  0
VERTEX
  5
1511
330
1193
100
AcDbEntity
  8
0
 62
     7
100
AcDbFaceRecord
 10
0.0
 20
0.0
 30
0.0
 70
   128
 71
   331
 72
   330
 73
   225
  0
VERTEX
  5
1512
330
1193
100
AcDbEntity
  8
0
 62
     7
100
AcDbFaceRecord
 10
0.0
 20
0.0
 30
0.0
 70
   128
 71
   221
 72
   226
 73
   232
  0
VERTEX
  5
1513
330
1193
100
AcDbEntity
  8
0
 62
     7
100
AcDbFaceRecord
 10
0.0
 20
0.0
 30
0.0
 70
   128
 71
   221
 72
   224
 73
   226
  0
VERTEX
  5
1514
330
1193
100
AcDbEntity
  8
0
 62
     7
100
AcDbFaceRecord
 10
0.0
 20
0.0
 30
0.0
 70
   128
 71
   224
 72
   221
 73
   220
  0
VERTEX
  5
1515
330
1193
100
AcDbEntity
  8
0
 62
     7
100
AcDbFaceRecord
 10
0.0
 20
0.0
 30
0.0
 70
   128
 71
   332
 72
   235
 73
   234
  0
VERTEX
  5
1516
330
1193
100
AcDbEntity
  8
0
 62
     7
100
AcDbFaceRecord
 10
0.0
 20
0.0
 30
0.0
 70
   128
 71
   332
 72
   232
 73
   235
  0
VERTEX
  5
1517
330
1193
100
AcDbEntity
  8
0
 62
     7
100
AcDbFaceRecord
 10
0.0
 20
0.0
 30
0.0
 70
   128
 71
   332
 72
   221
 73
   232
  0
VERTEX
  5
1518
330
1193
100
AcDbEntity
  8
0
 62
     7
100
AcDbFaceRecord
 10
0.0
 20
0.0
 30
0.0
 70
   128
 71
   332
 72
   222
 73
   221
  0
VERTEX
  5
1519
330
1193
100
AcDbEntity
  8
0
 62
     7
100
AcDbFaceRecord
 10
0.0
 20
0.0
 30
0.0
 70
   128
 71
   332
 72
   223
 73
   222
  0
VERTEX
  5
151A
330
1193
100
AcDbEntity
  8
0
 62
     7
100
AcDbFaceRecord
 10
0.0
 20
0.0
 30
0.0
 70
   128
 71
   333
 72
   223
 73
   332
  0
VERTEX
  5
151B
330
1193
100
AcDbEntity
  8
0
 62
     7
100
AcDbFaceRecord
 10
0.0
 20
0.0
 30
0.0
 70
   128
 71
   333
 72
   332
 73
   234
  0
VERTEX
  5
151C
330
1193
100
AcDbEntity
  8
0
 62
     7
100
AcDbFaceRecord
 10
0.0
 20
0.0
 30
0.0
 70
   128
 71
   334
 72
   248
 73
   247
  0
VERTEX
  5
151D
330
1193
100
AcDbEntity
  8
0
 62
     7
100
AcDbFaceRecord
 10
0.0
 20
0.0
 30
0.0
 70
   128
 71
   334
 72
   241
 73
   248
  0
VERTEX
  5
151E
330
1193
100
AcDbEntity
  8
0
 62
     7
100
AcDbFaceRecord
 10
0.0
 20
0.0
 30
0.0
 70
   128
 71
   334
 72
   231
 73
   241
  0
VERTEX
  5
151F
330
1193
100
AcDbEntity
  8
0
 62
     7
100
AcDbFaceRecord
 10
0.0
 20
0.0
 30
0.0
 70
   128
 71
   334
 72
   235
 73
   231
  0
VERTEX
  5
1520
330
1193
100
AcDbEntity
  8
0
 62
     7
100
AcDbFaceRecord
 10
0.0
 20
0.0
 30
0.0
 70
   128
 71
   334
 72
   236
 73
   235
  0
VERTEX
  5
1521
330
1193
100
AcDbEntity
  8
0
 62
     7
100
AcDbFaceRecord
 10
0.0
 20
0.0
 30
0.0
 70
   128
 71
   236
 72
   334
 73
   247
  0
VERTEX
  5
1522
330
1193
100
AcDbEntity
  8
0
 62
     7
100
AcDbFaceRecord
 10
0.0
 20
0.0
 30
0.0
 70
   128
 71
   335
 72
   262
 73
   261
  0
VERTEX
  5
1523
330
1193
100
AcDbEntity
  8
0
 62
     7
100
AcDbFaceRecord
 10
0.0
 20
0.0
 30
0.0
 70
   128
 71
   335
 72
   253
 73
   262
  0
VERTEX
  5
1524
330
1193
100
AcDbEntity
  8
0
 62
     7
100
AcDbFaceRecord
 10
0.0
 20
0.0
 30
0.0
 70
   128
 71
   335
 72
   246
 73
   253
  0
VERTEX
  5
1525
330
1193
100
AcDbEntity
  8
0
 62
     7
100
AcDbFaceRecord
 10
0.0
 20
0.0
 30
0.0
 70
   128
 71
   335
 72
   248
 73
   246
  0
VERTEX
  5
1526
330
1193
100
AcDbEntity
  8
0
 62
     7
100
AcDbFaceRecord
 10
0.0
 20
0.0
 30
0.0
 70
   128
 71
   335
 72
   249
 73
   248
  0
VERTEX
  5
1527
330
1193
100
AcDbEntity
  8
0
 62
     7
100
AcDbFaceRecord
 10
0.0
 20
0.0
 30
0.0
 70
   128
 71
   249
 72
   335
 73
   261
  0
VERTEX
  5
1528
330
1193
100
AcDbEntity
  8
0
 62
     7
100
AcDbFaceRecord
 10
0.0
 20
0.0
 30
0.0
 70
   128
 71
   336
 72
   272
 73
   271
  0
VERTEX
  5
1529
330
1193
100
AcDbEntity
  8
0
 62
     7
100
AcDbFaceRecord
 10
0.0
 20
0.0
 30
0.0
 70
   128
 71
   336
 72
   277
 73
   272
  0
VERTEX
  5
152A
330
1193
100
AcDbEntity
  8
0
 62
     7
100
AcDbFaceRecord
 10
0.0
 20
0.0
 30
0.0
 70
   128
 71
   336
 72
   267
 73
   277
  0
VERTEX
  5
152B
330
1193
100
AcDbEntity
  8
0
 62
     7
100
AcDbFaceRecord
 10
0.0
 20
0.0
 30
0.0
 70
   128
 71
   336
 72
   262
 73
   267
  0
VERTEX
  5
152C
330
1193
100
AcDbEntity
  8
0
 62
     7
100
AcDbFaceRecord
 10
0.0
 20
0.0
 30
0.0
 70
   128
 71
   336
 72
   263
 73
   262
  0
VERTEX
  5
152D
330
1193
100
AcDbEntity
  8
0
 62
     7
100
AcDbFaceRecord
 10
0.0
 20
0.0
 30
0.0
 70
   128
 71
   263
 72
   336
 73
   271
  0
VERTEX
  5
152E
330
1193
100
AcDbEntity
  8
0
 62
     7
100
AcDbFaceRecord
 10
0.0
 20
0.0
 30
0.0
 70
   128
 71
   337
 72
   284
 73
   283
  0
VERTEX
  5
152F
330
1193
100
AcDbEntity
  8
0
 62
     7
100
AcDbFaceRecord
 10
0.0
 20
0.0
 30
0.0
 70
   128
 71
   337
 72
   278
 73
   284
  0
VERTEX
  5
1530
330
1193
100
AcDbEntity
  8
0
 62
     7
100
AcDbFaceRecord
 10
0.0
 20
0.0
 30
0.0
 70
   128
 71
   337
 72
   277
 73
   278
  0
VERTEX
  5
1531
330
1193
100
AcDbEntity
  8
0
 62
     7
100
AcDbFaceRecord
 10
0.0
 20
0.0
 30
0.0
 70
   128
 71
   337
 72
   272
 73
   277
  0
VERTEX
  5
1532
330
1193
100
AcDbEntity
  8
0
 62
     7
100
AcDbFaceRecord
 10
0.0
 20
0.0
 30
0.0
 70
   128
 71
   337
 72
   273
 73
   272
  0
VERTEX
  5
1533
330
1193
100
AcDbEntity
  8
0
 62
     7
100
AcDbFaceRecord
 10
0.0
 20
0.0
 30
0.0
 70
   128
 71
   273
 72
   337
 73
   283
  0
VERTEX
  5
1534
330
1193
100
AcDbEntity
  8
0
 62
     7
100
AcDbFaceRecord
 10
0.0
 20
0.0
 30
0.0
 70
   128
 71
   338
 72
   296
 73
   295
  0
VERTEX
  5
1535
330
1193
100
AcDbEntity
  8
0
 62
     7
100
AcDbFaceRecord
 10
0.0
 20
0.0
 30
0.0
 70
   128
 71
   338
 72
   290
 73
   296
  0
VERTEX
  5
1536
330
1193
100
AcDbEntity
  8
0
 62
     7
100
AcDbFaceRecord
 10
0.0
 20
0.0
 30
0.0
 70
   128
 71
   338
 72
   282
 73
   290
  0
VERTEX
  5
1537
330
1193
100
AcDbEntity
  8
0
 62
     7
100
AcDbFaceRecord
 10
0.0
 20
0.0
 30
0.0
 70
   128
 71
   338
 72
   284
 73
   282
  0
VERTEX
  5
1538
330
1193
100
AcDbEntity
  8
0
 62
     7
100
AcDbFaceRecord
 10
0.0
 20
0.0
 30
0.0
 70
   128
 71
   338
 72
   285
 73
   284
  0
VERTEX
  5
1539
330
1193
100
AcDbEntity
  8
0
 62
     7
100
AcDbFaceRecord
 10
0.0
 20
0.0
 30
0.0
 70
   128
 71
   285
 72
   338
 73
   295
  0
VERTEX
  5
153A
330
1193
100
AcDbEntity
  8
0
 62
     7
100
AcDbFaceRecord
 10
0.0
 20
0.0
 30
0.0
 70
   128
 71
   339
 72
   309
 73
   322
  0
VERTEX
  5
153B
330
1193
100
AcDbEntity
  8
0
 62
     7
100
AcDbFaceRecord
 10
0.0
 20
0.0
 30
0.0
 70
   128
 71
   339
 72
   304
 73
   309
  0
VERTEX
  5
153C
330
1193
100
AcDbEntity
  8
0
 62
     7
100
AcDbFaceRecord
 10
0.0
 20
0.0
 30
0.0
 70
   128
 71
   339
 72
   294
 73
   304
  0
VERTEX
  5
153D
330
1193
100
AcDbEntity
  8
0
 62
     7
100
AcDbFaceRecord
 10
0.0
 20
0.0
 30
0.0
 70
   128
 71
   339
 72
   296
 73
   294
  0
VERTEX
  5
153E
330
1193
100
AcDbEntity
  8
0
 62
     7
100
AcDbFaceRecord
 10
0.0
 20
0.0
 30
0.0
 70
   128
 71
   339
 72
   297
 73
   296
  0
VERTEX
  5
153F
330
1193
100
AcDbEntity
  8
0
 62
     7
100
AcDbFaceRecord
 10
0.0
 20
0.0
 30
0.0
 70
   128
 71
   297
 72
   339
 73
   322
  0
VERTEX
  5
1540
330
1193
100
AcDbEntity
  8
0
 62
     7
100
AcDbFaceRecord
 10
0.0
 20
0.0
 30
0.0
 70
   128
 71
   340
 72
   321
 73
   309
  0
VERTEX
  5
1541
330
1193
100
AcDbEntity
  8
0
 62
     7
100
AcDbFaceRecord
 10
0.0
 20
0.0
 30
0.0
 70
   128
 71
   341
 72
   318
 73
   320
  0
VERTEX
  5
1542
330
1193
100
AcDbEntity
  8
0
 62
     7
100
AcDbFaceRecord
 10
0.0
 20
0.0
 30
0.0
 70
   128
 71
   341
 72
   308
 73
   318
  0
VERTEX
  5
1543
330
1193
100
AcDbEntity
  8
0
 62
     7
100
AcDbFaceRecord
 10
0.0
 20
0.0
 30
0.0
 70
   128
 71
   341
 72
   309
 73
   308
  0
VERTEX
  5
1544
330
1193
100
AcDbEntity
  8
0
 62
     7
100
AcDbFaceRecord
 10
0.0
 20
0.0
 30
0.0
 70
   128
 71
   341
 72
   340
 73
   309
  0
VERTEX
  5
1545
330
1193
100
AcDbEntity
  8
0
 62
     7
100
AcDbFaceRecord
 10
0.0
 20
0.0
 30
0.0
 70
   128
 71
   340
 72
   341
 73
   320
  0
VERTEX
  5
1546
330
1193
100
AcDbEntity
  8
0
 62
     7
100
AcDbFaceRecord
 10
0.0
 20
0.0
 30
0.0
 70
   128
 71
   342
 72
   314
 73
   316
  0
VERTEX
  5
1547
330
1193
100
AcDbEntity
  8
0
 62
     7
100
AcDbFaceRecord
 10
0.0
 20
0.0
 30
0.0
 70
   128
 71
   342
 72
   306
 73
   314
  0
VERTEX
  5
1548
330
1193
100
AcDbEntity
  8
0
 62
     7
100
AcDbFaceRecord
 10
0.0
 20
0.0
 30
0.0
 70
   128
 71
   342
 72
   317
 73
   306
  0
VERTEX
  5
1549
330
1193
100
AcDbEntity
  8
0
 62
     7
100
AcDbFaceRecord
 10
0.0
 20
0.0
 30
0.0
 70
   128
 71
   342
 72
   318
 73
   317
  0
VERTEX
  5
154A
330
1193
100
AcDbEntity
  8
0
 62
     7
100
AcDbFaceRecord
 10
0.0
 20
0.0
 30
0.0
 70
   128
 71
   342
 72
   319
 73
   318
  0
VERTEX
  5
154B
330
1193
100
AcDbEntity
  8
0
 62
     7
100
AcDbFaceRecord
 10
0.0
 20
0.0
 30
0.0
 70
   128
 71
   319
 72
   342
 73
   316
  0
VERTEX
  5
154C
330
1193
100
AcDbEntity
  8
0
 62
     7
100
AcDbFaceRecord
 10
0.0
 20
0.0
 30
0.0
 70
   128
 71
   343
 72
   315
 73
   314
  0
VERTEX
  5
154D
330
1193
100
AcDbEntity
  8
0
 62
     7
100
AcDbFaceRecord
 10
0.0
 20
0.0
 30
0.0
 70
   128
 71
   344
 72
   312
 73
   311
  0
VERTEX
  5
154E
330
1193
100
AcDbEntity
  8
0
 62
     7
100
AcDbFaceRecord
 10
0.0
 20
0.0
 30
0.0
 70
   128
 71
   344
 72
   314
 73
   312
  0
VERTEX
  5
154F
330
1193
100
AcDbEntity
  8
0
 62
     7
100
AcDbFaceRecord
 10
0.0
 20
0.0
 30
0.0
 70
   128
 71
   344
 72
   343
 73
   314
  0
VERTEX
  5
1550
330
1193
100
AcDbEntity
  8
0
 62
     7
100
AcDbFaceRecord
 10
0.0
 20
0.0
 30
0.0
 70
   128
 71
   343
 72
   344
 73
   311
  0
VERTEX
  5
1551
330
1193
100
AcDbEntity
  8
0
 62
     7
100
AcDbFaceRecord
 10
0.0
 20
0.0
 30
0.0
 70
   128
 71
   206
 72
   310
 73
   218
  0
VERTEX
  5
1552
330
1193
100
AcDbEntity
  8
0
 62
     7
100
AcDbFaceRecord
 10
0.0
 20
0.0
 30
0.0
 70
   128
 71
   206
 72
   313
 73
   310
  0
VERTEX
  5
1553
330
1193
100
AcDbEntity
  8
0
 62
     7
100
AcDbFaceRecord
 10
0.0
 20
0.0
 30
0.0
 70
   128
 71
   206
 72
   219
 73
   313
  0
VERTEX
  5
1554
330
1193
100
AcDbEntity
  8
0
 62
     7
100
AcDbFaceRecord
 10
0.0
 20
0.0
 30
0.0
 70
   128
 71
    86
 72
    20
 73
    87
  0
VERTEX
  5
1555
330
1193
100
AcDbEntity
  8
0
 62
     7
100
AcDbFaceRecord
 10
0.0
 20
0.0
 30
0.0
 70
   128
 71
    33
 72
    20
 73
    86
  0
VERTEX
  5
1556
330
1193
100
AcDbEntity
  8
0
 62
     7
100
AcDbFaceRecord
 10
0.0
 20
0.0
 30
0.0
 70
   128
 71
    73
 72
    34
 73
    74
  0
VERTEX
  5
1557
330
1193
100
AcDbEntity
  8
0
 62
     7
100
AcDbFaceRecord
 10
0.0
 20
0.0
 30
0.0
 70
   128
 71
    44
 72
    34
 73
    73
  0
VERTEX
  5
1558
330
1193
100
AcDbEntity
  8
0
 62
     7
100
AcDbFaceRecord
 10
0.0
 20
0.0
 30
0.0
 70
   128
 71
    45
 72
    44
 73
    54
  0
VERTEX
  5
1559
330
1193
100
AcDbEntity
  8
0
 62
     7
100
AcDbFaceRecord
 10
0.0
 20
0.0
 30
0.0
 70
   128
 71
    56
 72
    45
 73
    54
  0
VERTEX
  5
155A
330
1193
100
AcDbEntity
  8
0
 62
     7
100
AcDbFaceRecord
 10
0.0
 20
0.0
 30
0.0
 70
   128
 71
    54
 72
    44
 73
    73
  0
VERTEX
  5
155B
330
1193
100
AcDbEntity
  8
0
 62
     7
100
AcDbFaceRecord
 10
0.0
 20
0.0
 30
0.0
 70
   128
 71
    33
 72
    74
 73
    34
  0
VERTEX
  5
155C
330
1193
100
AcDbEntity
  8
0
 62
     7
100
AcDbFaceRecord
 10
0.0
 20
0.0
 30
0.0
 70
   128
 71
    74
 72
    33
 73
    86
  0
VERTEX
  5
155D
330
1193
100
AcDbEntity
  8
0
 62
     7
100
AcDbFaceRecord
 10
0.0
 20
0.0
 30
0.0
 70
   128
 71
    19
 72
    87
 73
    20
  0
VERTEX
  5
155E
330
1193
100
AcDbEntity
  8
0
 62
     7
100
AcDbFaceRecord
 10
0.0
 20
0.0
 30
0.0
 70
   128
 71
   115
 72
    87
 73
    19
  0
VERTEX
  5
155F
330
1193
100
AcDbEntity
  8
0
 62
     7
100
AcDbFaceRecord
 10
0.0
 20
0.0
 30
0.0
 70
   128
 71
   116
 72
   115
 73
    19
  0
VERTEX
  5
1560
330
1193
100
AcDbEntity
  8
0
 62
     7
100
AcDbFaceRecord
 10
0.0
 20
0.0
 30
0.0
 70
   128
 71
    11
 72
   116
 73
    19
  0
VERTEX
  5
1561
330
1193
100
AcDbEntity
  8
0
 62
     7
100
AcDbFaceRecord
 10
0.0
 20
0.0
 30
0.0
 70
   128
 71
   236
 72
   322
 73
   234
  0
VERTEX
  5
1562
330
1193
100
AcDbEntity
  8
0
 62
     7
100
AcDbFaceRecord
 10
0.0
 20
0.0
 30
0.0
 70
   128
 71
   297
 72
   322
 73
   236
  0
VERTEX
  5
1563
330
1193
100
AcDbEntity
  8
0
 62
     7
100
AcDbFaceRecord
 10
0.0
 20
0.0
 30
0.0
 70
   128
 71
   285
 72
   295
 73
   297
  0
VERTEX
  5
1564
330
1193
100
AcDbEntity
  8
0
 62
     7
100
AcDbFaceRecord
 10
0.0
 20
0.0
 30
0.0
 70
   128
 71
   283
 72
   285
 73
   297
  0
VERTEX
  5
1565
330
1193
100
AcDbEntity
  8
0
 62
     7
100
AcDbFaceRecord
 10
0.0
 20
0.0
 30
0.0
 70
   128
 71
   273
 72
   283
 73
   297
  0
VERTEX
  5
1566
330
1193
100
AcDbEntity
  8
0
 62
     7
100
AcDbFaceRecord
 10
0.0
 20
0.0
 30
0.0
 70
   128
 71
   271
 72
   273
 73
   297
  0
VERTEX
  5
1567
330
1193
100
AcDbEntity
  8
0
 62
     7
100
AcDbFaceRecord
 10
0.0
 20
0.0
 30
0.0
 70
   128
 71
   263
 72
   271
 73
   297
  0
VERTEX
  5
1568
330
1193
100
AcDbEntity
  8
0
 62
     7
100
AcDbFaceRecord
 10
0.0
 20
0.0
 30
0.0
 70
   128
 71
   261
 72
   263
 73
   297
  0
VERTEX
  5
1569
330
1193
100
AcDbEntity
  8
0
 62
     7
100
AcDbFaceRecord
 10
0.0
 20
0.0
 30
0.0
 70
   128
 71
   249
 72
   261
 73
   297
  0
VERTEX
  5
156A
330
1193
100
AcDbEntity
  8
0
 62
     7
100
AcDbFaceRecord
 10
0.0
 20
0.0
 30
0.0
 70
   128
 71
   247
 72
   249
 73
   297
  0
VERTEX
  5
156B
330
1193
100
AcDbEntity
  8
0
 62
     7
100
AcDbFaceRecord
 10
0.0
 20
0.0
 30
0.0
 70
   128
 71
   247
 72
   297
 73
   236
  0
VERTEX
  5
156C
330
1193
100
AcDbEntity
  8
0
 62
     7
100
AcDbFaceRecord
 10
0.0
 20
0.0
 30
0.0
 70
   128
 71
   321
 72
   234
 73
   322
  0
VERTEX
  5
156D
330
1193
100
AcDbEntity
  8
0
 62
     7
100
AcDbFaceRecord
 10
0.0
 20
0.0
 30
0.0
 70
   128
 71
   333
 72
   234
 73
   321
  0
VERTEX
  5
156E
330
1193
100
AcDbEntity
  8
0
 62
     7
100
AcDbFaceRecord
 10
0.0
 20
0.0
 30
0.0
 70
   128
 71
   108
 72
   116
 73
   109
  0
VERTEX
  5
156F
330
1193
100
AcDbEntity
  8
0
 62
     7
100
AcDbFaceRecord
 10
0.0
 20
0.0
 30
0.0
 70
   128
 71
   170
 72
    11
 73
     4
  0
VERTEX
  5
1570
330
1193
100
AcDbEntity
  8
0
 62
     7
100
AcDbFaceRecord
 10
0.0
 20
0.0
 30
0.0
 70
   128
 71
   185
 72
   321
 73
   187
  0
VERTEX
  5
1571
330
1193
100
AcDbEntity
  8
0
 62
     7
100
AcDbFaceRecord
 10
0.0
 20
0.0
 30
0.0
 70
   128
 71
   333
 72
   321
 73
   185
  0
VERTEX
  5
1572
330
1193
100
AcDbEntity
  8
0
 62
     7
100
AcDbFaceRecord
 10
0.0
 20
0.0
 30
0.0
 70
   128
 71
   219
 72
   187
 73
   321
  0
VERTEX
  5
1573
330
1193
100
AcDbEntity
  8
0
 62
     7
100
AcDbFaceRecord
 10
0.0
 20
0.0
 30
0.0
 70
   128
 71
   155
 72
   170
 73
     4
  0
VERTEX
  5
1574
330
1193
100
AcDbEntity
  8
0
 62
     7
100
AcDbFaceRecord
 10
0.0
 20
0.0
 30
0.0
 70
   128
 71
     5
 72
     4
 73
    11
  0
VERTEX
  5
1575
330
1193
100
AcDbEntity
  8
0
 62
     7
100
AcDbFaceRecord
 10
0.0
 20
0.0
 30
0.0
 70
   128
 71
     7
 72
     5
 73
    11
  0
VERTEX
  5
1576
330
1193
100
AcDbEntity
  8
0
 62
     7
100
AcDbFaceRecord
 10
0.0
 20
0.0
 30
0.0
 70
   128
 71
     3
 72
   126
 73
     7
  0
VERTEX
  5
1577
330
1193
100
AcDbEntity
  8
0
 62
     7
100
AcDbFaceRecord
 10
0.0
 20
0.0
 30
0.0
 70
   128
 71
     1
 72
     3
 73
     7
  0
VERTEX
  5
1578
330
1193
100
AcDbEntity
  8
0
 62
     7
100
AcDbFaceRecord
 10
0.0
 20
0.0
 30
0.0
 70
   128
 71
   124
 72
     1
 73
     7
  0
VERTEX
  5
1579
330
1193
100
AcDbEntity
  8
0
 62
     7
100
AcDbFaceRecord
 10
0.0
 20
0.0
 30
0.0
 70
   128
 71
    10
 72
   124
 73
     7
  0
VERTEX
  5
157A
330
1193
100
AcDbEntity
  8
0
 62
     7
100
AcDbFaceRecord
 10
0.0
 20
0.0
 30
0.0
 70
   128
 71
    10
 72
     7
 73
    11
  0
VERTEX
  5
157B
330
1193
100
AcDbEntity
  8
0
 62
     7
100
AcDbFaceRecord
 10
0.0
 20
0.0
 30
0.0
 70
   128
 71
   116
 72
    11
 73
   170
  0
VERTEX
  5
157C
330
1193
100
AcDbEntity
  8
0
 62
     7
100
AcDbFaceRecord
 10
0.0
 20
0.0
 30
0.0
 70
   128
 71
   141
 72
   116
 73
   108
  0
VERTEX
  5
157D
330
1193
100
AcDbEntity
  8
0
 62
     7
100
AcDbFaceRecord
 10
0.0
 20
0.0
 30
0.0
 70
   128
 71
   138
 72
   109
 73
   116
  0
VERTEX
  5
157E
330
1193
100
AcDbEntity
  8
0
 62
     7
100
AcDbFaceRecord
 10
0.0
 20
0.0
 30
0.0
 70
   128
 71
   112
 72
   138
 73
   116
  0
VERTEX
  5
157F
330
1193
100
AcDbEntity
  8
0
 62
     7
100
AcDbFaceRecord
 10
0.0
 20
0.0
 30
0.0
 70
   128
 71
   113
 72
   112
 73
   116
  0
VERTEX
  5
1580
330
1193
100
AcDbEntity
  8
0
 62
     7
100
AcDbFaceRecord
 10
0.0
 20
0.0
 30
0.0
 70
   128
 71
   136
 72
   113
 73
   116
  0
VERTEX
  5
1581
330
1193
100
AcDbEntity
  8
0
 62
     7
100
AcDbFaceRecord
 10
0.0
 20
0.0
 30
0.0
 70
   128
 71
   101
 72
   136
 73
   116
  0
VERTEX
  5
1582
330
1193
100
AcDbEntity
  8
0
 62
     7
100
AcDbFaceRecord
 10
0.0
 20
0.0
 30
0.0
 70
   128
 71
   172
 72
   170
 73
   185
  0
VERTEX
  5
1583
330
1193
100
AcDbEntity
  8
0
 62
     7
100
AcDbFaceRecord
 10
0.0
 20
0.0
 30
0.0
 70
   128
 71
   172
 72
   116
 73
   170
  0
VERTEX
  5
1584
330
1193
100
AcDbEntity
  8
0
 62
     7
100
AcDbFaceRecord
 10
0.0
 20
0.0
 30
0.0
 70
   128
 71
   172
 72
   101
 73
   116
  0
VERTEX
  5
1585
330
1193
100
AcDbEntity
  8
0
 62
     7
100
AcDbFaceRecord
 10
0.0
 20
0.0
 30
0.0
 70
   128
 71
   157
 72
   101
 73
   172
  0
VERTEX
  5
1586
330
1193
100
AcDbEntity
  8
0
 62
     7
100
AcDbFaceRecord
 10
0.0
 20
0.0
 30
0.0
 70
   128
 71
   172
 72
   185
 73
   187
  0
VERTEX
  5
1587
330
1193
100
AcDbEntity
  8
0
 62
     7
100
AcDbFaceRecord
 10
0.0
 20
0.0
 30
0.0
 70
   128
 71
   203
 72
   187
 73
   219
  0
VERTEX
  5
1588
330
1193
100
AcDbEntity
  8
0
 62
     7
100
AcDbFaceRecord
 10
0.0
 20
0.0
 30
0.0
 70
   128
 71
   311
 72
   219
 73
   321
  0
VERTEX
  5
1589
330
1193
100
AcDbEntity
  8
0
 62
     7
100
AcDbFaceRecord
 10
0.0
 20
0.0
 30
0.0
 70
   128
 71
   343
 72
   311
 73
   321
  0
VERTEX
  5
158A
330
1193
100
AcDbEntity
  8
0
 62
     7
100
AcDbFaceRecord
 10
0.0
 20
0.0
 30
0.0
 70
   128
 71
   315
 72
   343
 73
   321
  0
VERTEX
  5
158B
330
1193
100
AcDbEntity
  8
0
 62
     7
100
AcDbFaceRecord
 10
0.0
 20
0.0
 30
0.0
 70
   128
 71
   316
 72
   315
 73
   321
  0
VERTEX
  5
158C
330
1193
100
AcDbEntity
  8
0
 62
     7
100
AcDbFaceRecord
 10
0.0
 20
0.0
 30
0.0
 70
   128
 71
   319
 72
   316
 73
   321
  0
VERTEX
  5
158D
330
1193
100
AcDbEntity
  8
0
 62
     7
100
AcDbFaceRecord
 10
0.0
 20
0.0
 30
0.0
 70
   128
 71
   320
 72
   319
 73
   321
  0
VERTEX
  5
158E
330
1193
100
AcDbEntity
  8
0
 62
     7
100
AcDbFaceRecord
 10
0.0
 20
0.0
 30
0.0
 70
   128
 71
   340
 72
   320
 73
   321
  0
VERTEX
  5
158F
330
1193
100
AcDbEntity
  8
0
 62
     7
100
AcDbFaceRecord
 10
0.0
 20
0.0
 30
0.0
 70
   128
 71
   217
 72
   185
 73
   202
  0
VERTEX
  5
1590
330
1193
100
AcDbEntity
  8
0
 62
     7
100
AcDbFaceRecord
 10
0.0
 20
0.0
 30
0.0
 70
   128
 71
   217
 72
   333
 73
   185
  0
VERTEX
  5
1591
330
1193
100
AcDbEntity
  8
0
 62
     7
100
AcDbFaceRecord
 10
0.0
 20
0.0
 30
0.0
 70
   128
 71
   223
 72
   333
 73
   227
  0
VERTEX
  5
1592
330
1193
100
AcDbEntity
  8
0
 62
     7
100
AcDbFaceRecord
 10
0.0
 20
0.0
 30
0.0
 70
   128
 71
   220
 72
   223
 73
   227
  0
VERTEX
  5
1593
330
1193
100
AcDbEntity
  8
0
 62
     7
100
AcDbFaceRecord
 10
0.0
 20
0.0
 30
0.0
 70
   128
 71
   224
 72
   220
 73
   227
  0
VERTEX
  5
1594
330
1193
100
AcDbEntity
  8
0
 62
     7
100
AcDbFaceRecord
 10
0.0
 20
0.0
 30
0.0
 70
   128
 71
   225
 72
   224
 73
   227
  0
VERTEX
  5
1595
330
1193
100
AcDbEntity
  8
0
 62
     7
100
AcDbFaceRecord
 10
0.0
 20
0.0
 30
0.0
 70
   128
 71
   331
 72
   225
 73
   227
  0
VERTEX
  5
1596
330
1193
100
AcDbEntity
  8
0
 62
     7
100
AcDbFaceRecord
 10
0.0
 20
0.0
 30
0.0
 70
   128
 71
   228
 72
   227
 73
   333
  0
VERTEX
  5
1597
330
1193
100
AcDbEntity
  8
0
 62
     7
100
AcDbFaceRecord
 10
0.0
 20
0.0
 30
0.0
 70
   128
 71
   228
 72
   333
 73
   217
  0
SEQEND
  5
1598
330
1193
100
AcDbEntity
  8
0
 62
     7
  0
INSERT
  5
1599
330
1F
100
AcDbEntity
  8
0
100
AcDbBlockReference
 66
     1
  2
RM_SDB
 10
-8.945273401361019
 20
0.0
 30
0.0000000014460149
1001
AVE_MATERIAL
1002
{
1000
*GLOBAL*01
1000
2
1000

1002
{
1002
}
1002
{
1070
    39
1002
{
1002
{
1010
1.428571462631224
1020
1.428571462631224
1030
1.428571462631224
1002
}
1040
0.6999999880790711
1000

1040
0.0
1002
{
1002
}
1040
0.0
1002
{
1002
}
1040
0.0
1002
}
1002
{
1002
{
1010
1.0
1020
1.0
1030
1.0
1002
}
1040
1.0
1000

1040
0.0
1002
{
1002
}
1040
0.0
1002
{
1002
}
1040
0.0
1002
}
1002
{
1002
{
1010
5.0
1020
5.0
1030
5.0
1002
}
1040
0.2000000029802322
1000

1040
0.0
1002
{
1002
}
1040
0.0
1002
{
1002
}
1040
0.0
1002
}
1002
{
1070
     0
1002
{
1070
     1
1002
{
1040
1.0
1040
1.0
1000

1040
0.0
1002
{
1002
}
1040
0.0
1002
{
1002
}
1040
0.0
1002
}
1002
}
1040
0.0
1040
0.0
1040
0.0
1002
}
1002
{
1040
0.0
1040
0.0
1000

1040
0.0
1002
{
1002
}
1040
0.0
1002
{
1002
}
1040
0.0
1002
}
1002
{
1040
0.5
1040
1.0
1000

1040
0.0
1002
{
1002
}
1040
0.0
1002
{
1002
}
1040
0.0
1002
}
1002
{
1070
     0
1040
0.0
1002
{
1002
}
1040
0.0
1002
{
1002
}
1040
0.0
1002
}
1002
{
1040
0.0
1002
{
1002
{
1010
0.0
1020
0.0
1030
0.0
1002
}
1040
0.0
1000

1040
0.0
1002
{
1002
}
1040
0.0
1002
{
1002
}
1040
0.0
1002
}
1002
}
1002
{
1002
{
1070
     1
1002
{
1040
0.0
1040
1.0
1000

1040
0.0
1002
{
1002
}
1040
0.0
1002
{
1002
}
1040
0.0
1002
}
1002
}
1040
0.0
1002
{
1002
}
1010
0.0
1020
0.0
1030
0.0
1010
0.0
1020
0.0
1030
0.0
1010
0.0
1020
0.0
1030
0.0
1070
     0
1002
}
1002
{
1002
{
1040
0.0
1040
0.0
1002
{
1070
     0
1002
}
1002
}
1070
     0
1040
0.0
1002
{
1002
}
1002
}
1002
{
1002
}
1002
}
1002
{
1071
        3
1070
     3
1070
     0
1002
{
1070
     2
1070
     1
1070
     0
1040
0.0
1002
}
1070
     0
1070
     2
1002
{
1002
}
1002
}
1002
{
1040
8030.0
1040
190.3000030517578
1040
0.3050000071525574
1040
228.0
1040
545.0
1040
14.0
1040
17.39999961853027
1040
0.4560000002384186
1002
}
1000
D49
1002
}
  0
ATTRIB
  5
159A
330
1599
100
AcDbEntity
  8
0
100
AcDbText
 10
-8.945273401361019
 20
0.0
 30
0.0000000014460149
 40
0.2
  1
*GLOBAL*01
100
AcDbAttribute
  2
NAME
 70
     1
  0
ATTRIB
  5
159B
330
1599
100
AcDbEntity
  8
0
100
AcDbText
 10
-8.945273401361019
 20
0.0
 30
0.0000000014460149
 40
0.2
  1

100
AcDbAttribute
  2
ACADCOLOR
 70
     1
  0
ATTRIB
  5
159C
330
1599
100
AcDbEntity
  8
0
100
AcDbText
 10
-8.945273401361019
 20
0.0
 30
0.0000000014460149
 40
0.2
  1
1.0000,1.0000,1.0000
100
AcDbAttribute
  2
COLOR
 70
     1
  0
ATTRIB
  5
159D
330
1599
100
AcDbEntity
  8
0
100
AcDbText
 10
-8.945273401361019
 20
0.0
 30
0.0000000014460149
 40
0.2
  1
1.0,1.0,1.0
100
AcDbAttribute
  2
OPACITY
 70
     1
  0
ATTRIB
  5
159E
330
1599
100
AcDbEntity
  8
0
100
AcDbText
 10
-8.945273401361019
 20
0.0
 30
0.0000000014460149
 40
0.2
  1
("nullsurf" "")
100
AcDbAttribute
  2
SURFACE
 70
     1
  0
ATTRIB
  5
159F
330
1599
100
AcDbEntity
  8
0
100
AcDbText
 10
-8.945273401361019
 20
0.0
 30
0.0000000014460149
 40
0.2
  1
(11 "Ka" "0.7")(11 "Kd" "1")(11 "Ks" "0.2")(11 "roughness" "0.5")
100
AcDbAttribute
  2
SURF1
 70
     1
  0
ATTRIB
  5
15A0
330
1599
100
AcDbEntity
  8
0
100
AcDbText
 10
-8.945273401361019
 20
0.0
 30
0.0000000014460149
 40
0.2
  1

100
AcDbAttribute
  2
SURF2
 70
     1
  0
ATTRIB
  5
15A1
330
1599
100
AcDbEntity
  8
0
100
AcDbText
 10
-8.945273401361019
 20
0.0
 30
0.0000000014460149
 40
0.2
  1

100
AcDbAttribute
  2
SURF3
 70
     1
  0
ATTRIB
  5
15A2
330
1599
100
AcDbEntity
  8
0
100
AcDbText
 10
-8.945273401361019
 20
0.0
 30
0.0000000014460149
 40
0.2
  1

100
AcDbAttribute
  2
SURF4
 70
     1
  0
ATTRIB
  5
15A3
330
1599
100
AcDbEntity
  8
0
100
AcDbText
 10
-8.945273401361019
 20
0.0
 30
0.0000000014460149
 40
0.2
  1
-1.0
100
AcDbAttribute
  2
SHADINGRATE
 70
     1
  0
ATTRIB
  5
15A4
330
1599
100
AcDbEntity
  8
0
100
AcDbText
 10
-8.945273401361019
 20
0.0
 30
0.0000000014460149
 40
0.2
  1
("nulldisp" "")
100
AcDbAttribute
  2
DISPLACEMENT
 70
     1
  0
ATTRIB
  5
15A5
330
1599
100
AcDbEntity
  8
0
100
AcDbText
 10
-8.945273401361019
 20
0.0
 30
0.0000000014460149
 40
0.2
  1

100
AcDbAttribute
  2
DISP1
 70
     1
  0
ATTRIB
  5
15A6
330
1599
100
AcDbEntity
  8
0
100
AcDbText
 10
-8.945273401361019
 20
0.0
 30
0.0000000014460149
 40
0.2
  1

100
AcDbAttribute
  2
DISP2
 70
     1
  0
ATTRIB
  5
15A7
330
1599
100
AcDbEntity
  8
0
100
AcDbText
 10
-8.945273401361019
 20
0.0
 30
0.0000000014460149
 40
0.2
  1

100
AcDbAttribute
  2
DISP3
 70
     1
  0
ATTRIB
  5
15A8
330
1599
100
AcDbEntity
  8
0
100
AcDbText
 10
-8.945273401361019
 20
0.0
 30
0.0000000014460149
 40
0.2
  1

100
AcDbAttribute
  2
DISP4
 70
     1
  0
ATTRIB
  5
15A9
330
1599
100
AcDbEntity
  8
0
100
AcDbText
 10
-8.945273401361019
 20
0.0
 30
0.0000000014460149
 40
0.2
  1
0.0
100
AcDbAttribute
  2
DBOUND
 70
     1
  0
ATTRIB
  5
15AA
330
1599
100
AcDbEntity
  8
0
100
AcDbText
 10
-8.945273401361019
 20
0.0
 30
0.0000000014460149
 40
0.2
  1
0
100
AcDbAttribute
  2
SMOOTH
 70
     1
  0
ATTRIB
  5
15AB
330
1599
100
AcDbEntity
  8
0
100
AcDbText
 10
-8.945273401361019
 20
0.0
 30
0.0000000014460149
 40
0.2
  1
("" "")
100
AcDbAttribute
  2
ATMOSHPERE
 70
     1
  0
ATTRIB
  5
15AC
330
1599
100
AcDbEntity
  8
0
100
AcDbText
 10
-8.945273401361019
 20
0.0
 30
0.0000000014460149
 40
0.2
  1

100
AcDbAttribute
  2
ATMO1
 70
     1
  0
ATTRIB
  5
15AD
330
1599
100
AcDbEntity
  8
0
100
AcDbText
 10
-8.945273401361019
 20
0.0
 30
0.0000000014460149
 40
0.2
  1

100
AcDbAttribute
  2
ATMO2
 70
     1
  0
ATTRIB
  5
15AE
330
1599
100
AcDbEntity
  8
0
100
AcDbText
 10
-8.945273401361019
 20
0.0
 30
0.0000000014460149
 40
0.2
  1

100
AcDbAttribute
  2
ATMO3
 70
     1
  0
ATTRIB
  5
15AF
330
1599
100
AcDbEntity
  8
0
100
AcDbText
 10
-8.945273401361019
 20
0.0
 30
0.0000000014460149
 40
0.2
  1

100
AcDbAttribute
  2
ATMO4
 70
     1
  0
ATTRIB
  5
15B0
330
1599
100
AcDbEntity
  8
0
100
AcDbText
 10
-8.945273401361019
 20
0.0
 30
0.0000000014460149
 40
0.2
  1
0.0 0.0 1.0 0.0 0.0 1.0 1.0 1.0
100
AcDbAttribute
  2
TCCORD
 70
     1
  0
SEQEND
  5
15B1
330
1599
100
AcDbEntity
  8
0
  0
ENDSEC
  0
SECTION
  2
OBJECTS
  0
DICTIONARY
  5
C
330
0
100
AcDbDictionary
281
     1
  3
ACAD_COLOR
350
7B7
  3
ACAD_GROUP
350
D
  3
ACAD_LAYOUT
350
1A
  3
ACAD_MATERIAL
350
7B6
  3
ACAD_MLEADERSTYLE
350
8EB
  3
ACAD_MLINESTYLE
350
17
  3
ACAD_PLOTSETTINGS
350
19
  3
ACAD_PLOTSTYLENAME
350
E
  3
ACAD_SCALELIST
350
8C9
  3
ACAD_TABLESTYLE
350
7B8
  3
ACAD_VISUALSTYLE
350
8B8
  3
ACDB_RECOMPOSE_DATA
350
D5F
  3
AcDbVariableDictionary
350
7AF
  3
AVE_ACITABLE
350
8FB
  3
DWGPROPS
350
15B3
  0
DICTIONARY
  5
D51
330
10
100
AcDbDictionary
280
     1
281
     1
  3
ADSK_XREC_LAYER_RECONCILED
360
D52
  0
DICTIONARY
  5
D53
330
D2
100
AcDbDictionary
280
     1
281
     1
  3
ADSK_XREC_LAYER_RECONCILED
360
D54
  0
DICTIONARY
  5
D55
330
798
100
AcDbDictionary
280
     1
281
     1
  3
ADSK_XREC_LAYER_RECONCILED
360
D56
  0
DICTIONARY
  5
D57
330
8F6
100
AcDbDictionary
280
     1
281
     1
  3
ADSK_XREC_LAYER_RECONCILED
360
D58
  0
DICTIONARY
  5
80B
330
7FA
100
AcDbDictionary
280
     1
281
     1
  3
ACAD_SORTENTS
360
80C
  0
DICTIONARY
  5
7B7
102
{ACAD_REACTORS
330
C
102
}
330
C
100
AcDbDictionary
281
     1
  0
DICTIONARY
  5
D
102
{ACAD_REACTORS
330
C
102
}
330
C
100
AcDbDictionary
281
     1
  0
DICTIONARY
  5
1A
102
{ACAD_REACTORS
330
C
102
}
330
C
100
AcDbDictionary
281
     1
  3
Layout1
350
1E
  3
Layout2
350
26
  3
Model
350
22
  0
DICTIONARY
  5
7B6
102
{ACAD_REACTORS
330
C
102
}
330
C
100
AcDbDictionary
281
     1
  3
_GLOBAL_01
350
D49
  3
ByBlock
350
8A8
  3
ByLayer
350
8A0
  3
Global
350
8B0
  0
DICTIONARY
  5
8EB
102
{ACAD_REACTORS
330
C
102
}
330
C
100
AcDbDictionary
281
     1
  3
Standard
350
8EC
  0
DICTIONARY
  5
17
102
{ACAD_REACTORS
330
C
102
}
330
C
100
AcDbDictionary
281
     1
  3
Standard
350
18
  0
DICTIONARY
  5
19
102
{ACAD_REACTORS
330
C
102
}
330
C
100
AcDbDictionary
281
     1
  0
ACDBDICTIONARYWDFLT
  5
E
102
{ACAD_REACTORS
330
C
102
}
330
C
100
AcDbDictionary
281
     1
  3
Normal
350
F
100
AcDbDictionaryWithDefault
340
F
  0
DICTIONARY
  5
8C9
102
{ACAD_REACTORS
330
C
102
}
330
C
100
AcDbDictionary
281
     1
  3
A0
350
8CA
  3
A1
350
8CB
  3
A2
350
8CC
  3
A3
350
8CD
  3
A4
350
8CE
  3
A5
350
8CF
  3
A6
350
8D0
  3
A7
350
8D1
  3
A8
350
8D2
  3
A9
350
8D3
  3
B0
350
8D4
  3
B1
350
8D5
  3
B2
350
8D6
  3
B3
350
8D7
  3
B4
350
8D8
  3
B5
350
8D9
  3
B6
350
8DA
  3
B7
350
8DB
  3
B8
350
8DC
  3
B9
350
8DD
  3
C0
350
8DE
  3
C1
350
8DF
  3
C2
350
8E0
  3
C3
350
8E1
  3
C4
350
8E2
  3
C5
350
8E3
  3
C6
350
8E4
  3
C7
350
8E5
  3
C8
350
8E6
  3
C9
350
8E7
  3
D0
350
8E8
  3
D1
350
8E9
  3
D2
350
8EA
  0
DICTIONARY
  5
7B8
102
{ACAD_REACTORS
330
C
102
}
330
C
100
AcDbDictionary
281
     1
  3
Standard
350
7B9
  0
DICTIONARY
  5
8B8
102
{ACAD_REACTORS
330
C
102
}
330
C
100
AcDbDictionary
281
     1
  3
2dWireframe
350
8BE
  3
3D Hidden
350
8C0
  3
3dWireframe
350
8BF
  3
Basic
350
8BD
  3
Brighten
350
8C4
  3
ColorChange
350
8C8
  3
Conceptual
350
8C1
  3
Dim
350
8C3
  3
Facepattern
350
8C7
  3
Flat
350
8B9
  3
FlatWithEdges
350
8BA
  3
Gouraud
350
8BB
  3
GouraudWithEdges
350
8BC
  3
Linepattern
350
8C6
  3
Realistic
350
8C2
  3
Thicken
350
8C5
  0
XRECORD
  5
D5F
102
{ACAD_REACTORS
330
C
102
}
330
C
100
AcDbXrecord
280
     1
 90
        1
330
7B9
  0
DICTIONARY
  5
7AF
102
{ACAD_REACTORS
330
C
102
}
330
C
100
AcDbDictionary
281
     1
  3
CANNOSCALE
350
D5A
  3
CMLEADERSTYLE
350
D59
  3
CTABLESTYLE
350
7C8
  3
DIMASSOC
350
7B0
  3
INDEXCTL
350
D5C
  3
SORTENTS
350
D5B
  0
DICTIONARY
  5
8FB
102
{ACAD_REACTORS
330
C
102
}
330
C
100
AcDbDictionary
281
     1
  0
XRECORD
  5
15B3
102
{ACAD_REACTORS
330
C
102
}
330
C
100
AcDbXrecord
280
     1
  1
DWGPROPS COOKIE
  2

  3

  4

  6

  7

  8
Christian
  9

300
=
301
=
302
=
303
=
304
=
305
=
306
=
307
=
308
=
309
=
 40
0.5979800347222223
 41
2452587.497350764
 42
2454459.465704155
  1

 90
        0
  0
XRECORD
  5
D52
102
{ACAD_REACTORS
330
D51
102
}
330
D51
100
AcDbXrecord
280
     1
290
     1
  0
XRECORD
  5
D54
102
{ACAD_REACTORS
330
D53
102
}
330
D53
100
AcDbXrecord
280
     1
290
     1
  0
XRECORD
  5
D56
102
{ACAD_REACTORS
330
D55
102
}
330
D55
100
AcDbXrecord
280
     1
290
     1
  0
XRECORD
  5
D58
102
{ACAD_REACTORS
330
D57
102
}
330
D57
100
AcDbXrecord
280
     1
290
     1
  0
SORTENTSTABLE
  5
80C
102
{ACAD_REACTORS
330
80B
102
}
330
80B
100
AcDbSortentsTable
330
7FA
  0
LAYOUT
  5
1E
102
{ACAD_XDICTIONARY
360
15B4
102
}
102
{ACAD_REACTORS
330
1A
102
}
330
1A
100
AcDbPlotSettings
  1

  2

  4

  6

 40
0.0
 41
0.0
 42
0.0
 43
0.0
 44
0.0
 45
0.0
 46
0.0
 47
0.0
 48
0.0
 49
0.0
140
0.0
141
0.0
142
1.0
143
1.0
 70
   688
 72
     0
 73
     0
 74
     5
  7

 75
    16
147
1.0
148
0.0
149
0.0
100
AcDbLayout
  1
Layout1
 70
     1
 71
     1
 10
0.0
 20
0.0
 11
12.0
 21
9.0
 12
0.0
 22
0.0
 32
0.0
 14
1.000000000000000E+20
 24
1.000000000000000E+20
 34
1.000000000000000E+20
 15
-1.000000000000000E+20
 25
-1.000000000000000E+20
 35
-1.000000000000000E+20
146
0.0
 13
0.0
 23
0.0
 33
0.0
 16
1.0
 26
0.0
 36
0.0
 17
0.0
 27
1.0
 37
0.0
 76
     0
330
1B
  0
LAYOUT
  5
26
102
{ACAD_XDICTIONARY
360
15B8
102
}
102
{ACAD_REACTORS
330
1A
102
}
330
1A
100
AcDbPlotSettings
  1

  2

  4

  6

 40
0.0
 41
0.0
 42
0.0
 43
0.0
 44
0.0
 45
0.0
 46
0.0
 47
0.0
 48
0.0
 49
0.0
140
0.0
141
0.0
142
1.0
143
1.0
 70
   688
 72
     0
 73
     0
 74
     5
  7

 75
    16
147
1.0
148
0.0
149
0.0
100
AcDbLayout
  1
Layout2
 70
     1
 71
     2
 10
0.0
 20
0.0
 11
12.0
 21
9.0
 12
0.0
 22
0.0
 32
0.0
 14
0.0
 24
0.0
 34
0.0
 15
0.0
 25
0.0
 35
0.0
146
0.0
 13
0.0
 23
0.0
 33
0.0
 16
1.0
 26
0.0
 36
0.0
 17
0.0
 27
1.0
 37
0.0
 76
     0
330
23
  0
LAYOUT
  5
22
102
{ACAD_XDICTIONARY
360
15B6
102
}
102
{ACAD_REACTORS
330
1A
102
}
330
1A
100
AcDbPlotSettings
  1

  2
EPSON Stylus C80 Series
  4
Letter
  6

 40
3.757083177566528
 41
14.76376056671143
 42
3.757080078125
 43
3.757080078125
 44
215.8999938964844
 45
279.3999938964844
 46
0.0
 47
0.0
 48
0.0
 49
0.0
140
0.0
141
0.0
142
1.0
143
1.0
 70
 11952
 72
     0
 73
     1
 74
     0
  7

 75
     0
147
1.0
148
-32.82152498042917
149
339.8261437359589
100
AcDbLayout
  1
Model
 70
     1
 71
     0
 10
0.0
 20
0.0
 11
12.0
 21
9.0
 12
0.0
 22
0.0
 32
0.0
 14
0.0
 24
0.0
 34
0.0
 15
0.0
 25
0.0
 35
0.0
146
0.0
 13
0.0
 23
0.0
 33
0.0
 16
1.0
 26
0.0
 36
0.0
 17
0.0
 27
1.0
 37
0.0
 76
     0
330
1F
331
88B
  0
MATERIAL
  5
D49
102
{ACAD_XDICTIONARY
360
D4A
102
}
102
{ACAD_REACTORS
330
7B6
102
}
330
7B6
100
AcDbMaterial
  1
_GLOBAL_01
 70
     1
 40
0.6999999880790711
 90
-1033081748
 71
     1
 91
-1023410177
 72
     0
 76
     1
 45
0.2000000029802322
 92
-1023673349
 77
     0
171
     0
175
     0
179
     0
  0
MATERIAL
  5
8A8
102
{ACAD_XDICTIONARY
360
8A9
102
}
102
{ACAD_REACTORS
330
7B6
102
}
330
7B6
100
AcDbMaterial
  1
ByBlock
 72
     0
 43
0.0208333333333333
 43
0.0
 43
0.0
 43
0.0
 43
0.0
 43
0.0208333333333333
 43
0.0
 43
0.0
 43
0.0
 43
0.0
 43
1.0
 43
0.0
 43
0.0
 43
0.0
 43
0.0
 43
1.0
 77
     0
 47
0.0208333333333333
 47
0.0
 47
0.0
 47
0.0
 47
0.0
 47
0.0208333333333333
 47
0.0
 47
0.0
 47
0.0
 47
0.0
 47
1.0
 47
0.0
 47
0.0
 47
0.0
 47
0.0
 47
1.0
171
     0
 49
0.0208333333333333
 49
0.0
 49
0.0
 49
0.0
 49
0.0
 49
0.0208333333333333
 49
0.0
 49
0.0
 49
0.0
 49
0.0
 49
1.0
 49
0.0
 49
0.0
 49
0.0
 49
0.0
 49
1.0
175
     0
142
0.0208333333333333
142
0.0
142
0.0
142
0.0
142
0.0
142
0.0208333333333333
142
0.0
142
0.0
142
0.0
142
0.0
142
1.0
142
0.0
142
0.0
142
0.0
142
0.0
142
1.0
179
     0
144
0.0208333333333333
144
0.0
144
0.0
144
0.0
144
0.0
144
0.0208333333333333
144
0.0
144
0.0
144
0.0
144
0.0
144
1.0
144
0.0
144
0.0
144
0.0
144
0.0
144
1.0
147
0.0208333333333333
147
0.0
147
0.0
147
0.0
147
0.0
147
0.0208333333333333
147
0.0
147
0.0
147
0.0
147
0.0
147
1.0
147
0.0
147
0.0
147
0.0
147
0.0
147
1.0
  0
MATERIAL
  5
8A0
102
{ACAD_XDICTIONARY
360
8A1
102
}
102
{ACAD_REACTORS
330
7B6
102
}
330
7B6
100
AcDbMaterial
  1
ByLayer
 72
     0
 43
0.0208333333333333
 43
0.0
 43
0.0
 43
0.0
 43
0.0
 43
0.0208333333333333
 43
0.0
 43
0.0
 43
0.0
 43
0.0
 43
1.0
 43
0.0
 43
0.0
 43
0.0
 43
0.0
 43
1.0
 77
     0
 47
0.0208333333333333
 47
0.0
 47
0.0
 47
0.0
 47
0.0
 47
0.0208333333333333
 47
0.0
 47
0.0
 47
0.0
 47
0.0
 47
1.0
 47
0.0
 47
0.0
 47
0.0
 47
0.0
 47
1.0
171
     0
 49
0.0208333333333333
 49
0.0
 49
0.0
 49
0.0
 49
0.0
 49
0.0208333333333333
 49
0.0
 49
0.0
 49
0.0
 49
0.0
 49
1.0
 49
0.0
 49
0.0
 49
0.0
 49
0.0
 49
1.0
175
     0
142
0.0208333333333333
142
0.0
142
0.0
142
0.0
142
0.0
142
0.0208333333333333
142
0.0
142
0.0
142
0.0
142
0.0
142
1.0
142
0.0
142
0.0
142
0.0
142
0.0
142
1.0
179
     0
144
0.0208333333333333
144
0.0
144
0.0
144
0.0
144
0.0
144
0.0208333333333333
144
0.0
144
0.0
144
0.0
144
0.0
144
1.0
144
0.0
144
0.0
144
0.0
144
0.0
144
1.0
147
0.0208333333333333
147
0.0
147
0.0
147
0.0
147
0.0
147
0.0208333333333333
147
0.0
147
0.0
147
0.0
147
0.0
147
1.0
147
0.0
147
0.0
147
0.0
147
0.0
147
1.0
  0
MATERIAL
  5
8B0
102
{ACAD_XDICTIONARY
360
8B1
102
}
102
{ACAD_REACTORS
330
7B6
102
}
330
7B6
100
AcDbMaterial
  1
Global
 72
     0
 43
0.0208333333333333
 43
0.0
 43
0.0
 43
0.0
 43
0.0
 43
0.0208333333333333
 43
0.0
 43
0.0
 43
0.0
 43
0.0
 43
1.0
 43
0.0
 43
0.0
 43
0.0
 43
0.0
 43
1.0
 77
     0
 47
0.0208333333333333
 47
0.0
 47
0.0
 47
0.0
 47
0.0
 47
0.0208333333333333
 47
0.0
 47
0.0
 47
0.0
 47
0.0
 47
1.0
 47
0.0
 47
0.0
 47
0.0
 47
0.0
 47
1.0
171
     0
 49
0.0208333333333333
 49
0.0
 49
0.0
 49
0.0
 49
0.0
 49
0.0208333333333333
 49
0.0
 49
0.0
 49
0.0
 49
0.0
 49
1.0
 49
0.0
 49
0.0
 49
0.0
 49
0.0
 49
1.0
175
     0
142
0.0208333333333333
142
0.0
142
0.0
142
0.0
142
0.0
142
0.0208333333333333
142
0.0
142
0.0
142
0.0
142
0.0
142
1.0
142
0.0
142
0.0
142
0.0
142
0.0
142
1.0
179
     0
144
0.0208333333333333
144
0.0
144
0.0
144
0.0
144
0.0
144
0.0208333333333333
144
0.0
144
0.0
144
0.0
144
0.0
144
1.0
144
0.0
144
0.0
144
0.0
144
0.0
144
1.0
147
0.0208333333333333
147
0.0
147
0.0
147
0.0
147
0.0
147
0.0208333333333333
147
0.0
147
0.0
147
0.0
147
0.0
147
1.0
147
0.0
147
0.0
147
0.0
147
0.0
147
1.0
  0
MLEADERSTYLE
  5
8EC
102
{ACAD_REACTORS
330
8EB
102
}
330
8EB
100
AcDbMLeaderStyle
170
     2
171
     1
172
     0
 90
        2
 40
0.0
 41
0.0
173
     1
 91
-1056964608
340
14
 92
       -2
290
     1
 42
0.09
291
     1
 43
0.36
  3
Standard
 44
0.18
300

342
11
174
     1
178
     6
175
     1
176
     0
 93
-1056964608
 45
0.18
292
     0
297
     0
 46
0.18
 94
-1056964608
 47
1.0
 49
1.0
140
1.0
293
     1
141
0.0
294
     1
177
     0
142
1.0
295
     0
296
     0
143
0.125
1001
ACAD_MLEADERVER
1070
     2
  0
MLINESTYLE
  5
18
102
{ACAD_REACTORS
330
17
102
}
330
17
100
AcDbMlineStyle
  2
STANDARD
 70
     0
  3

 62
   256
 51
90.0
 52
90.0
 71
     2
 49
0.5
 62
   256
  6
BYLAYER
 49
-0.5
 62
   256
  6
BYLAYER
  0
ACDBPLACEHOLDER
  5
F
102
{ACAD_REACTORS
330
E
102
}
330
E
  0
SCALE
  5
8CA
102
{ACAD_REACTORS
330
8C9
102
}
330
8C9
100
AcDbScale
 70
     0
300
1:1
140
1.0
141
1.0
290
     1
  0
SCALE
  5
8CB
102
{ACAD_REACTORS
330
8C9
102
}
330
8C9
100
AcDbScale
 70
     0
300
1:2
140
1.0
141
2.0
290
     0
  0
SCALE
  5
8CC
102
{ACAD_REACTORS
330
8C9
102
}
330
8C9
100
AcDbScale
 70
     0
300
1:4
140
1.0
141
4.0
290
     0
  0
SCALE
  5
8CD
102
{ACAD_REACTORS
330
8C9
102
}
330
8C9
100
AcDbScale
 70
     0
300
1:5
140
1.0
141
5.0
290
     0
  0
SCALE
  5
8CE
102
{ACAD_REACTORS
330
8C9
102
}
330
8C9
100
AcDbScale
 70
     0
300
1:8
140
1.0
141
8.0
290
     0
  0
SCALE
  5
8CF
102
{ACAD_REACTORS
330
8C9
102
}
330
8C9
100
AcDbScale
 70
     0
300
1:10
140
1.0
141
10.0
290
     0
  0
SCALE
  5
8D0
102
{ACAD_REACTORS
330
8C9
102
}
330
8C9
100
AcDbScale
 70
     0
300
1:16
140
1.0
141
16.0
290
     0
  0
SCALE
  5
8D1
102
{ACAD_REACTORS
330
8C9
102
}
330
8C9
100
AcDbScale
 70
     0
300
1:20
140
1.0
141
20.0
290
     0
  0
SCALE
  5
8D2
102
{ACAD_REACTORS
330
8C9
102
}
330
8C9
100
AcDbScale
 70
     0
300
1:30
140
1.0
141
30.0
290
     0
  0
SCALE
  5
8D3
102
{ACAD_REACTORS
330
8C9
102
}
330
8C9
100
AcDbScale
 70
     0
300
1:40
140
1.0
141
40.0
290
     0
  0
SCALE
  5
8D4
102
{ACAD_REACTORS
330
8C9
102
}
330
8C9
100
AcDbScale
 70
     0
300
1:50
140
1.0
141
50.0
290
     0
  0
SCALE
  5
8D5
102
{ACAD_REACTORS
330
8C9
102
}
330
8C9
100
AcDbScale
 70
     0
300
1:100
140
1.0
141
100.0
290
     0
  0
SCALE
  5
8D6
102
{ACAD_REACTORS
330
8C9
102
}
330
8C9
100
AcDbScale
 70
     0
300
2:1
140
2.0
141
1.0
290
     0
  0
SCALE
  5
8D7
102
{ACAD_REACTORS
330
8C9
102
}
330
8C9
100
AcDbScale
 70
     0
300
4:1
140
4.0
141
1.0
290
     0
  0
SCALE
  5
8D8
102
{ACAD_REACTORS
330
8C9
102
}
330
8C9
100
AcDbScale
 70
     0
300
8:1
140
8.0
141
1.0
290
     0
  0
SCALE
  5
8D9
102
{ACAD_REACTORS
330
8C9
102
}
330
8C9
100
AcDbScale
 70
     0
300
10:1
140
10.0
141
1.0
290
     0
  0
SCALE
  5
8DA
102
{ACAD_REACTORS
330
8C9
102
}
330
8C9
100
AcDbScale
 70
     0
300
100:1
140
100.0
141
1.0
290
     0
  0
SCALE
  5
8DB
102
{ACAD_REACTORS
330
8C9
102
}
330
8C9
100
AcDbScale
 70
     0
300
1/128" = 1'-0"
140
0.0078125
141
12.0
290
     0
  0
SCALE
  5
8DC
102
{ACAD_REACTORS
330
8C9
102
}
330
8C9
100
AcDbScale
 70
     0
300
1/64" = 1'-0"
140
0.015625
141
12.0
290
     0
  0
SCALE
  5
8DD
102
{ACAD_REACTORS
330
8C9
102
}
330
8C9
100
AcDbScale
 70
     0
300
1/32" = 1'-0"
140
0.03125
141
12.0
290
     0
  0
SCALE
  5
8DE
102
{ACAD_REACTORS
330
8C9
102
}
330
8C9
100
AcDbScale
 70
     0
300
1/16" = 1'-0"
140
0.0625
141
12.0
290
     0
  0
SCALE
  5
8DF
102
{ACAD_REACTORS
330
8C9
102
}
330
8C9
100
AcDbScale
 70
     0
300
3/32" = 1'-0"
140
0.09375
141
12.0
290
     0
  0
SCALE
  5
8E0
102
{ACAD_REACTORS
330
8C9
102
}
330
8C9
100
AcDbScale
 70
     0
300
1/8" = 1'-0"
140
0.125
141
12.0
290
     0
  0
SCALE
  5
8E1
102
{ACAD_REACTORS
330
8C9
102
}
330
8C9
100
AcDbScale
 70
     0
300
3/16" = 1'-0"
140
0.1875
141
12.0
290
     0
  0
SCALE
  5
8E2
102
{ACAD_REACTORS
330
8C9
102
}
330
8C9
100
AcDbScale
 70
     0
300
1/4" = 1'-0"
140
0.25
141
12.0
290
     0
  0
SCALE
  5
8E3
102
{ACAD_REACTORS
330
8C9
102
}
330
8C9
100
AcDbScale
 70
     0
300
3/8" = 1'-0"
140
0.375
141
12.0
290
     0
  0
SCALE
  5
8E4
102
{ACAD_REACTORS
330
8C9
102
}
330
8C9
100
AcDbScale
 70
     0
300
1/2" = 1'-0"
140
0.5
141
12.0
290
     0
  0
SCALE
  5
8E5
102
{ACAD_REACTORS
330
8C9
102
}
330
8C9
100
AcDbScale
 70
     0
300
3/4" = 1'-0"
140
0.75
141
12.0
290
     0
  0
SCALE
  5
8E6
102
{ACAD_REACTORS
330
8C9
102
}
330
8C9
100
AcDbScale
 70
     0
300
1" = 1'-0"
140
1.0
141
12.0
290
     0
  0
SCALE
  5
8E7
102
{ACAD_REACTORS
330
8C9
102
}
330
8C9
100
AcDbScale
 70
     0
300
1-1/2" = 1'-0"
140
1.5
141
12.0
290
     0
  0
SCALE
  5
8E8
102
{ACAD_REACTORS
330
8C9
102
}
330
8C9
100
AcDbScale
 70
     0
300
3" = 1'-0"
140
3.0
141
12.0
290
     0
  0
SCALE
  5
8E9
102
{ACAD_REACTORS
330
8C9
102
}
330
8C9
100
AcDbScale
 70
     0
300
6" = 1'-0"
140
6.0
141
12.0
290
     0
  0
SCALE
  5
8EA
102
{ACAD_REACTORS
330
8C9
102
}
330
8C9
100
AcDbScale
 70
     0
300
1'-0" = 1'-0"
140
12.0
141
12.0
290
     0
  0
TABLESTYLE
  5
7B9
102
{ACAD_XDICTIONARY
360
D5D
102
}
102
{ACAD_REACTORS
330
7B8
102
}
330
7B8
100
AcDbTableStyle
  3
Standard
 70
     0
 71
     0
 40
0.06
 41
0.06
280
     0
281
     0
  7
Standard
140
0.18
170
     2
 62
     0
 63
     7
283
     0
274
    -2
284
     1
 64
     0
275
    -2
285
     1
 65
     0
276
    -2
286
     1
 66
     0
277
    -2
287
     1
 67
     0
278
    -2
288
     1
 68
     0
279
    -2
289
     1
 69
     0
  7
Standard
140
0.25
170
     5
 62
     0
 63
     7
283
     0
274
    -2
284
     1
 64
     0
275
    -2
285
     1
 65
     0
276
    -2
286
     1
 66
     0
277
    -2
287
     1
 67
     0
278
    -2
288
     1
 68
     0
279
    -2
289
     1
 69
     0
  7
Standard
140
0.18
170
     5
 62
     0
 63
     7
283
     0
274
    -2
284
     1
 64
     0
275
    -2
285
     1
 65
     0
276
    -2
286
     1
 66
     0
277
    -2
287
     1
 67
     0
278
    -2
288
     1
 68
     0
279
    -2
289
     1
 69
     0
  0
VISUALSTYLE
  5
8BE
102
{ACAD_REACTORS
330
8B8
102
}
330
8B8
100
AcDbVisualStyle
  2
2dWireframe
 70
     4
 71
     0
 72
     2
 73
     0
 90
        0
 40
-0.6
 41
-30.0
 62
     5
 63
     7
 74
     1
 91
        4
 64
     7
 65
   257
 75
     1
175
     1
 42
1.0
 92
        0
 66
   257
 43
1.0
 76
     1
 77
     6
 78
     2
 67
     7
 79
     5
170
     0
171
     0
290
     0
174
     0
 93
        1
 44
0.0
173
     0
291
     0
 45
0.0
1001
ACAD
1000
AcDbSavedByObjectVersion
1070
     0
1000
AcDbSavedByObjectVersion
1070
     0
  0
VISUALSTYLE
  5
8C0
102
{ACAD_REACTORS
330
8B8
102
}
330
8B8
100
AcDbVisualStyle
  2
3D Hidden
 70
     6
 71
     1
 72
     2
 73
     2
 90
        0
 40
-0.6
 41
-30.0
 62
     5
 63
     7
 74
     2
 91
        2
 64
     7
 65
   257
 75
     2
175
     1
 42
40.0
 92
        0
 66
   257
 43
1.0
 76
     1
 77
     6
 78
     2
 67
     7
 79
     3
170
     0
171
     0
290
     0
174
     0
 93
        1
 44
0.0
173
     0
291
     0
 45
0.0
1001
ACAD
1000
AcDbSavedByObjectVersion
1070
     0
1000
AcDbSavedByObjectVersion
1070
     0
  0
VISUALSTYLE
  5
8BF
102
{ACAD_REACTORS
330
8B8
102
}
330
8B8
100
AcDbVisualStyle
  2
3dWireframe
 70
     5
 71
     0
 72
     2
 73
     0
 90
        0
 40
-0.6
 41
-30.0
 62
     5
 63
     7
 74
     1
 91
        4
 64
     7
 65
   257
 75
     1
175
     1
 42
1.0
 92
        0
 66
   257
 43
1.0
 76
     1
 77
     6
 78
     2
 67
     7
 79
     5
170
     0
171
     0
290
     0
174
     0
 93
        1
 44
0.0
173
     0
291
     0
 45
0.0
1001
ACAD
1000
AcDbSavedByObjectVersion
1070
     0
1000
AcDbSavedByObjectVersion
1070
     0
  0
VISUALSTYLE
  5
8BD
102
{ACAD_REACTORS
330
8B8
102
}
330
8B8
100
AcDbVisualStyle
  2
Basic
 70
     7
 71
     1
 72
     0
 73
     1
 90
        0
 40
-0.6
 41
-30.0
 62
     5
 63
     7
 74
     0
 91
        4
 64
     7
 65
   257
 75
     1
175
     1
 42
1.0
 92
        8
 66
     7
 43
1.0
 76
     1
 77
     6
 78
     2
 67
     7
 79
     5
170
     0
171
     0
290
     0
174
     0
 93
        1
 44
0.0
173
     0
291
     1
 45
0.0
1001
ACAD
1000
AcDbSavedByObjectVersion
1070
     0
1000
AcDbSavedByObjectVersion
1070
     0
  0
VISUALSTYLE
  5
8C4
102
{ACAD_REACTORS
330
8B8
102
}
330
8B8
100
AcDbVisualStyle
  2
Brighten
 70
    12
 71
     2
 72
     2
 73
     0
 90
        0
 40
-0.6
 41
-30.0
 62
     5
 63
     7
 74
     1
 91
        4
 64
     7
 65
   257
 75
     1
175
     1
 42
1.0
 92
        8
 66
     7
 43
1.0
 76
     1
 77
     6
 78
     2
 67
     7
 79
     5
170
     0
171
     0
290
     0
174
     0
 93
        1
 44
50.0
173
     0
291
     1
 45
0.0
1001
ACAD
1000
AcDbSavedByObjectVersion
1070
     0
1000
AcDbSavedByObjectVersion
1070
     0
  0
VISUALSTYLE
  5
8C8
102
{ACAD_REACTORS
330
8B8
102
}
330
8B8
100
AcDbVisualStyle
  2
ColorChange
 70
    16
 71
     2
 72
     2
 73
     3
 90
        0
 40
-0.6
 41
-30.0
 62
     5
 63
     8
 74
     1
 91
        4
 64
     7
 65
   257
 75
     1
175
     1
 42
1.0
 92
        8
 66
     8
 43
1.0
 76
     1
 77
     6
 78
     2
 67
     7
 79
     5
170
     0
171
     0
290
     0
174
     0
 93
        1
 44
0.0
173
     0
291
     1
 45
0.0
1001
ACAD
1000
AcDbSavedByObjectVersion
1070
     0
1000
AcDbSavedByObjectVersion
1070
     0
  0
VISUALSTYLE
  5
8C1
102
{ACAD_REACTORS
330
8B8
102
}
330
8B8
100
AcDbVisualStyle
  2
Conceptual
 70
     9
 71
     3
 72
     2
 73
     0
 90
        0
 40
-0.6
 41
-30.0
 62
     5
 63
     7
 74
     2
 91
        2
 64
     7
 65
   257
 75
     1
175
     1
 42
40.0
 92
        8
 66
     7
 43
1.0
 76
     1
 77
     6
 78
     2
 67
     7
 79
     3
170
     0
171
     0
290
     0
174
     0
 93
        1
 44
0.0
173
     0
291
     0
 45
0.0
1001
ACAD
1000
AcDbSavedByObjectVersion
1070
     0
1000
AcDbSavedByObjectVersion
1070
     0
  0
VISUALSTYLE
  5
8C3
102
{ACAD_REACTORS
330
8B8
102
}
330
8B8
100
AcDbVisualStyle
  2
Dim
 70
    11
 71
     2
 72
     2
 73
     0
 90
        0
 40
-0.6
 41
-30.0
 62
     5
 63
     7
 74
     1
 91
        4
 64
     7
 65
   257
 75
     1
175
     1
 42
1.0
 92
        8
 66
     7
 43
1.0
 76
     1
 77
     6
 78
     2
 67
     7
 79
     5
170
     0
171
     0
290
     0
174
     0
 93
        1
 44
-50.0
173
     0
291
     1
 45
0.0
1001
ACAD
1000
AcDbSavedByObjectVersion
1070
     0
1000
AcDbSavedByObjectVersion
1070
     0
  0
VISUALSTYLE
  5
8C7
102
{ACAD_REACTORS
330
8B8
102
}
330
8B8
100
AcDbVisualStyle
  2
Facepattern
 70
    15
 71
     2
 72
     2
 73
     0
 90
        0
 40
-0.6
 41
-30.0
 62
     5
 63
     7
 74
     1
 91
        4
 64
     7
 65
   257
 75
     1
175
     1
 42
1.0
 92
        8
 66
     7
 43
1.0
 76
     1
 77
     6
 78
     2
 67
     7
 79
     5
170
     0
171
     0
290
     0
174
     0
 93
        1
 44
0.0
173
     0
291
     1
 45
0.0
1001
ACAD
1000
AcDbSavedByObjectVersion
1070
     0
1000
AcDbSavedByObjectVersion
1070
     0
  0
VISUALSTYLE
  5
8B9
102
{ACAD_REACTORS
330
8B8
102
}
330
8B8
100
AcDbVisualStyle
  2
Flat
 70
     0
 71
     2
 72
     1
 73
     1
 90
        2
 40
-0.6
 41
30.0
 62
     5
 63
     7
 74
     0
 91
        4
 64
     7
 65
   257
 75
     1
175
     1
 42
1.0
 92
        8
 66
     7
 43
1.0
 76
     1
 77
     6
 78
     2
 67
     7
 79
     5
170
     0
171
     0
290
     0
174
     0
 93
       13
 44
0.0
173
     0
291
     1
 45
0.0
1001
ACAD
1000
AcDbSavedByObjectVersion
1070
     0
1000
AcDbSavedByObjectVersion
1070
     0
  0
VISUALSTYLE
  5
8BA
102
{ACAD_REACTORS
330
8B8
102
}
330
8B8
100
AcDbVisualStyle
  2
FlatWithEdges
 70
     1
 71
     2
 72
     1
 73
     1
 90
        2
 40
-0.6
 41
30.0
 62
     5
 63
     7
 74
     1
 91
        4
 64
     7
 65
   257
 75
     1
175
     1
 42
1.0
 92
        0
 66
   257
 43
1.0
 76
     1
 77
     6
 78
     2
 67
     7
 79
     5
170
     0
171
     0
290
     0
174
     0
 93
       13
 44
0.0
173
     0
291
     1
 45
0.0
1001
ACAD
1000
AcDbSavedByObjectVersion
1070
     0
1000
AcDbSavedByObjectVersion
1070
     0
  0
VISUALSTYLE
  5
8BB
102
{ACAD_REACTORS
330
8B8
102
}
330
8B8
100
AcDbVisualStyle
  2
Gouraud
 70
     2
 71
     2
 72
     2
 73
     1
 90
        2
 40
-0.6
 41
30.0
 62
     5
 63
     7
 74
     0
 91
        4
 64
     7
 65
   257
 75
     1
175
     1
 42
1.0
 92
        0
 66
     7
 43
1.0
 76
     1
 77
     6
 78
     2
 67
     7
 79
     5
170
     0
171
     0
290
     0
174
     0
 93
       13
 44
0.0
173
     0
291
     1
 45
0.0
1001
ACAD
1000
AcDbSavedByObjectVersion
1070
     0
1000
AcDbSavedByObjectVersion
1070
     0
  0
VISUALSTYLE
  5
8BC
102
{ACAD_REACTORS
330
8B8
102
}
330
8B8
100
AcDbVisualStyle
  2
GouraudWithEdges
 70
     3
 71
     2
 72
     2
 73
     1
 90
        2
 40
-0.6
 41
30.0
 62
     5
 63
     7
 74
     1
 91
        4
 64
     7
 65
   257
 75
     1
175
     1
 42
1.0
 92
        0
 66
   257
 43
1.0
 76
     1
 77
     6
 78
     2
 67
     7
 79
     5
170
     0
171
     0
290
     0
174
     0
 93
       13
 44
0.0
173
     0
291
     1
 45
0.0
1001
ACAD
1000
AcDbSavedByObjectVersion
1070
     0
1000
AcDbSavedByObjectVersion
1070
     0
  0
VISUALSTYLE
  5
8C6
102
{ACAD_REACTORS
330
8B8
102
}
330
8B8
100
AcDbVisualStyle
  2
Linepattern
 70
    14
 71
     2
 72
     2
 73
     0
 90
        0
 40
-0.6
 41
-30.0
 62
     5
 63
     7
 74
     1
 91
        4
 64
     7
 65
   257
 75
     7
175
     7
 42
1.0
 92
        8
 66
     7
 43
1.0
 76
     1
 77
     6
 78
     2
 67
     7
 79
     5
170
     0
171
     0
290
     0
174
     0
 93
        1
 44
0.0
173
     0
291
     1
 45
0.0
1001
ACAD
1000
AcDbSavedByObjectVersion
1070
     0
1000
AcDbSavedByObjectVersion
1070
     0
  0
VISUALSTYLE
  5
8C2
102
{ACAD_REACTORS
330
8B8
102
}
330
8B8
100
AcDbVisualStyle
  2
Realistic
 70
     8
 71
     2
 72
     2
 73
     0
 90
        0
 40
-0.6
 41
-30.0
 62
     5
 63
     7
 74
     1
 91
        0
 64
     7
 65
   257
 75
     1
175
     1
 42
1.0
 92
        8
 66
     8
 43
1.0
 76
     1
 77
     6
 78
     2
 67
     7
 79
     5
170
     0
171
     0
290
     0
174
     0
 93
       13
 44
0.0
173
     0
291
     0
 45
0.0
1001
ACAD
1000
AcDbSavedByObjectVersion
1070
     0
1000
AcDbSavedByObjectVersion
1070
     0
  0
VISUALSTYLE
  5
8C5
102
{ACAD_REACTORS
330
8B8
102
}
330
8B8
100
AcDbVisualStyle
  2
Thicken
 70
    13
 71
     2
 72
     2
 73
     0
 90
        0
 40
-0.6
 41
-30.0
 62
     5
 63
     7
 74
     1
 91
        4
 64
     7
 65
   257
 75
     1
175
     1
 42
1.0
 92
       12
 66
     7
 43
1.0
 76
     1
 77
     6
 78
     2
 67
     7
 79
     5
170
     0
171
     0
290
     0
174
     0
 93
        1
 44
0.0
173
     0
291
     1
 45
0.0
1001
ACAD
1000
AcDbSavedByObjectVersion
1070
     0
1000
AcDbSavedByObjectVersion
1070
     0
  0
DICTIONARYVAR
  5
D5A
102
{ACAD_REACTORS
330
7AF
102
}
330
7AF
100
DictionaryVariables
280
     0
  1
1:1
  0
DICTIONARYVAR
  5
D59
102
{ACAD_REACTORS
330
7AF
102
}
330
7AF
100
DictionaryVariables
280
     0
  1
STANDARD
  0
DICTIONARYVAR
  5
7C8
102
{ACAD_REACTORS
330
7AF
102
}
330
7AF
100
DictionaryVariables
280
     0
  1
STANDARD
  0
DICTIONARYVAR
  5
7B0
102
{ACAD_REACTORS
330
7AF
102
}
330
7AF
100
DictionaryVariables
280
     0
  1
1
  0
DICTIONARYVAR
  5
D5C
102
{ACAD_REACTORS
330
7AF
102
}
330
7AF
100
DictionaryVariables
280
     0
  1
0
  0
DICTIONARYVAR
  5
D5B
102
{ACAD_REACTORS
330
7AF
102
}
330
7AF
100
DictionaryVariables
280
     0
  1
127
  0
DICTIONARY
  5
15B4
330
1E
100
AcDbDictionary
280
     1
281
     1
  3
ACAD_XREC_ROUNDTRIP
360
15B5
  0
DICTIONARY
  5
15B8
330
26
100
AcDbDictionary
280
     1
281
     1
  3
ACAD_XREC_ROUNDTRIP
360
15B9
  0
DICTIONARY
  5
15B6
330
22
100
AcDbDictionary
280
     1
281
     1
  3
ACAD_XREC_ROUNDTRIP
360
15B7
  0
DICTIONARY
  5
D4A
330
D49
100
AcDbDictionary
280
     1
281
     1
  3
ACAD_XREC_ROUNDTRIP
360
D6B
  3
BUMPTILE
360
D4F
  3
DIFFUSETILE
360
D4B
  3
OPACITYTILE
360
D4E
  3
REFLECTIONTILE
360
D4D
  3
REFRACTIONTILE
360
D50
  3
SPECULARTILE
360
D4C
  0
DICTIONARY
  5
8A9
330
8A8
100
AcDbDictionary
280
     1
281
     1
  3
ACAD_XREC_ROUNDTRIP
360
D69
  3
BUMPTILE
360
8AB
  3
DIFFUSETILE
360
8AA
  3
OPACITYTILE
360
8AE
  3
REFLECTIONTILE
360
8AD
  3
REFRACTIONTILE
360
8AF
  3
SPECULARTILE
360
8AC
  0
DICTIONARY
  5
8A1
330
8A0
100
AcDbDictionary
280
     1
281
     1
  3
ACAD_XREC_ROUNDTRIP
360
D68
  3
BUMPTILE
360
8A3
  3
DIFFUSETILE
360
8A2
  3
OPACITYTILE
360
8A6
  3
REFLECTIONTILE
360
8A5
  3
REFRACTIONTILE
360
8A7
  3
SPECULARTILE
360
8A4
  0
DICTIONARY
  5
8B1
330
8B0
100
AcDbDictionary
280
     1
281
     1
  3
ACAD_XREC_ROUNDTRIP
360
D6A
  3
BUMPTILE
360
8B3
  3
DIFFUSETILE
360
8B2
  3
OPACITYTILE
360
8B6
  3
REFLECTIONTILE
360
8B5
  3
REFRACTIONTILE
360
8B7
  3
SPECULARTILE
360
8B4
  0
DICTIONARY
  5
D5D
330
7B9
100
AcDbDictionary
280
     1
281
     1
  3
ACAD_ROUNDTRIP_2008_TABLESTYLE_CELLSTYLEMAP
360
15B2
  3
ACAD_XREC_ROUNDTRIP
360
15BA
  0
XRECORD
  5
15B5
102
{ACAD_REACTORS
330
15B4
102
}
330
15B4
100
AcDbXrecord
280
     1
102
SHADEPLOT
 70
     0
102
SHADEPLOTRESLEVEL
 70
     2
102
SHADEPLOTCUSTOMDPI
 70
   300
  0
XRECORD
  5
15B9
102
{ACAD_REACTORS
330
15B8
102
}
330
15B8
100
AcDbXrecord
280
     1
102
SHADEPLOT
 70
     0
102
SHADEPLOTRESLEVEL
 70
     2
102
SHADEPLOTCUSTOMDPI
 70
   300
  0
XRECORD
  5
15B7
102
{ACAD_REACTORS
330
15B6
102
}
330
15B6
100
AcDbXrecord
280
     1
102
SHADEPLOT
 70
     0
102
SHADEPLOTRESLEVEL
 70
     2
102
SHADEPLOTCUSTOMDPI
 70
   300
  0
XRECORD
  5
D6B
102
{ACAD_REACTORS
330
D4A
102
}
330
D4A
100
AcDbXrecord
280
     1
102
MATERIAL
148
0.0
149
0.0
149
0.0
 93
        0
 94
      127
282
     0
 72
     0
 77
     0
171
     0
175
     0
179
     0
273
     0
  0
XRECORD
  5
D4F
102
{ACAD_REACTORS
330
D4A
102
}
330
D4A
100
AcDbXrecord
280
     1
270
     1
271
     1
  0
XRECORD
  5
D4B
102
{ACAD_REACTORS
330
D4A
102
}
330
D4A
100
AcDbXrecord
280
     1
270
     1
271
     1
  0
XRECORD
  5
D4E
102
{ACAD_REACTORS
330
D4A
102
}
330
D4A
100
AcDbXrecord
280
     1
270
     1
271
     1
  0
XRECORD
  5
D4D
102
{ACAD_REACTORS
330
D4A
102
}
330
D4A
100
AcDbXrecord
280
     1
270
     1
271
     1
  0
XRECORD
  5
D50
102
{ACAD_REACTORS
330
D4A
102
}
330
D4A
100
AcDbXrecord
280
     1
270
     1
271
     1
  0
XRECORD
  5
D4C
102
{ACAD_REACTORS
330
D4A
102
}
330
D4A
100
AcDbXrecord
280
     1
270
     1
271
     1
  0
XRECORD
  5
D69
102
{ACAD_REACTORS
330
8A9
102
}
330
8A9
100
AcDbXrecord
280
     1
102
MATERIAL
148
0.0
149
0.0
149
0.0
 93
        0
 94
      127
282
     0
 72
     0
 77
     0
171
     0
175
     0
179
     0
273
     0
  0
XRECORD
  5
8AB
102
{ACAD_REACTORS
330
8A9
102
}
330
8A9
100
AcDbXrecord
280
     1
270
     1
271
     1
  0
XRECORD
  5
8AA
102
{ACAD_REACTORS
330
8A9
102
}
330
8A9
100
AcDbXrecord
280
     1
270
     1
271
     1
  0
XRECORD
  5
8AE
102
{ACAD_REACTORS
330
8A9
102
}
330
8A9
100
AcDbXrecord
280
     1
270
     1
271
     1
  0
XRECORD
  5
8AD
102
{ACAD_REACTORS
330
8A9
102
}
330
8A9
100
AcDbXrecord
280
     1
270
     1
271
     1
  0
XRECORD
  5
8AF
102
{ACAD_REACTORS
330
8A9
102
}
330
8A9
100
AcDbXrecord
280
     1
270
     1
271
     1
  0
XRECORD
  5
8AC
102
{ACAD_REACTORS
330
8A9
102
}
330
8A9
100
AcDbXrecord
280
     1
270
     1
271
     1
  0
XRECORD
  5
D68
102
{ACAD_REACTORS
330
8A1
102
}
330
8A1
100
AcDbXrecord
280
     1
102
MATERIAL
148
0.0
149
0.0
149
0.0
 93
        0
 94
      127
282
     0
 72
     0
 77
     0
171
     0
175
     0
179
     0
273
     0
  0
XRECORD
  5
8A3
102
{ACAD_REACTORS
330
8A1
102
}
330
8A1
100
AcDbXrecord
280
     1
270
     1
271
     1
  0
XRECORD
  5
8A2
102
{ACAD_REACTORS
330
8A1
102
}
330
8A1
100
AcDbXrecord
280
     1
270
     1
271
     1
  0
XRECORD
  5
8A6
102
{ACAD_REACTORS
330
8A1
102
}
330
8A1
100
AcDbXrecord
280
     1
270
     1
271
     1
  0
XRECORD
  5
8A5
102
{ACAD_REACTORS
330
8A1
102
}
330
8A1
100
AcDbXrecord
280
     1
270
     1
271
     1
  0
XRECORD
  5
8A7
102
{ACAD_REACTORS
330
8A1
102
}
330
8A1
100
AcDbXrecord
280
     1
270
     1
271
     1
  0
XRECORD
  5
8A4
102
{ACAD_REACTORS
330
8A1
102
}
330
8A1
100
AcDbXrecord
280
     1
270
     1
271
     1
  0
XRECORD
  5
D6A
102
{ACAD_REACTORS
330
8B1
102
}
330
8B1
100
AcDbXrecord
280
     1
102
MATERIAL
148
0.0
149
0.0
149
0.0
 93
        0
 94
      127
282
     0
 72
     0
 77
     0
171
     0
175
     0
179
     0
273
     0
  0
XRECORD
  5
8B3
102
{ACAD_REACTORS
330
8B1
102
}
330
8B1
100
AcDbXrecord
280
     1
270
     1
271
     1
  0
XRECORD
  5
8B2
102
{ACAD_REACTORS
330
8B1
102
}
330
8B1
100
AcDbXrecord
280
     1
270
     1
271
     1
  0
XRECORD
  5
8B6
102
{ACAD_REACTORS
330
8B1
102
}
330
8B1
100
AcDbXrecord
280
     1
270
     1
271
     1
  0
XRECORD
  5
8B5
102
{ACAD_REACTORS
330
8B1
102
}
330
8B1
100
AcDbXrecord
280
     1
270
     1
271
     1
  0
XRECORD
  5
8B7
102
{ACAD_REACTORS
330
8B1
102
}
330
8B1
100
AcDbXrecord
280
     1
270
     1
271
     1
  0
XRECORD
  5
8B4
102
{ACAD_REACTORS
330
8B1
102
}
330
8B1
100
AcDbXrecord
280
     1
270
     1
271
     1
  0
CELLSTYLEMAP
  5
15B2
102
{ACAD_REACTORS
330
D5D
102
}
330
D5D
100
AcDbCellStyleMap
 90
        3
300
CELLSTYLE
  1
TABLEFORMAT_BEGIN
 90
        5
170
     1
 91
        0
 92
    32768
 62
   257
 93
        1
300
CONTENTFORMAT
  1
CONTENTFORMAT_BEGIN
 90
        0
 91
        0
 92
        4
 93
        0
300

 40
0.0
140
1.0
 94
        5
 62
     0
340
11
144
0.25
309
CONTENTFORMAT_END
171
     1
301
MARGIN
  1
CELLMARGIN_BEGIN
 40
0.06
 40
0.06
 40
0.06
 40
0.06
 40
0.18
 40
0.18
309
CELLMARGIN_END
 94
        6
 95
        1
302
GRIDFORMAT
  1
GRIDFORMAT_BEGIN
 90
        0
 91
        1
 62
     0
 92
       -2
340
0
 93
        0
 40
0.045
309
GRIDFORMAT_END
 95
        2
302
GRIDFORMAT
  1
GRIDFORMAT_BEGIN
 90
        0
 91
        1
 62
     0
 92
       -2
340
0
 93
        0
 40
0.045
309
GRIDFORMAT_END
 95
        4
302
GRIDFORMAT
  1
GRIDFORMAT_BEGIN
 90
        0
 91
        1
 62
     0
 92
       -2
340
0
 93
        0
 40
0.045
309
GRIDFORMAT_END
 95
        8
302
GRIDFORMAT
  1
GRIDFORMAT_BEGIN
 90
        0
 91
        1
 62
     0
 92
       -2
340
0
 93
        0
 40
0.045
309
GRIDFORMAT_END
 95
       16
302
GRIDFORMAT
  1
GRIDFORMAT_BEGIN
 90
        0
 91
        1
 62
     0
 92
       -2
340
0
 93
        0
 40
0.045
309
GRIDFORMAT_END
 95
       32
302
GRIDFORMAT
  1
GRIDFORMAT_BEGIN
 90
        0
 91
        1
 62
     0
 92
       -2
340
0
 93
        0
 40
0.045
309
GRIDFORMAT_END
309
TABLEFORMAT_END
  1
CELLSTYLE_BEGIN
 90
        1
 91
        1
300
_TITLE
309
CELLSTYLE_END
300
CELLSTYLE
  1
TABLEFORMAT_BEGIN
 90
        5
170
     1
 91
        0
 92
        0
 62
   257
 93
        1
300
CONTENTFORMAT
  1
CONTENTFORMAT_BEGIN
 90
        0
 91
        0
 92
        4
 93
        0
300

 40
0.0
140
1.0
 94
        5
 62
     0
340
11
144
0.18
309
CONTENTFORMAT_END
171
     1
301
MARGIN
  1
CELLMARGIN_BEGIN
 40
0.06
 40
0.06
 40
0.06
 40
0.06
 40
0.18
 40
0.18
309
CELLMARGIN_END
 94
        6
 95
        1
302
GRIDFORMAT
  1
GRIDFORMAT_BEGIN
 90
        0
 91
        1
 62
     0
 92
       -2
340
0
 93
        0
 40
0.045
309
GRIDFORMAT_END
 95
        2
302
GRIDFORMAT
  1
GRIDFORMAT_BEGIN
 90
        0
 91
        1
 62
     0
 92
       -2
340
0
 93
        0
 40
0.045
309
GRIDFORMAT_END
 95
        4
302
GRIDFORMAT
  1
GRIDFORMAT_BEGIN
 90
        0
 91
        1
 62
     0
 92
       -2
340
0
 93
        0
 40
0.045
309
GRIDFORMAT_END
 95
        8
302
GRIDFORMAT
  1
GRIDFORMAT_BEGIN
 90
        0
 91
        1
 62
     0
 92
       -2
340
0
 93
        0
 40
0.045
309
GRIDFORMAT_END
 95
       16
302
GRIDFORMAT
  1
GRIDFORMAT_BEGIN
 90
        0
 91
        1
 62
     0
 92
       -2
340
0
 93
        0
 40
0.045
309
GRIDFORMAT_END
 95
       32
302
GRIDFORMAT
  1
GRIDFORMAT_BEGIN
 90
        0
 91
        1
 62
     0
 92
       -2
340
0
 93
        0
 40
0.045
309
GRIDFORMAT_END
309
TABLEFORMAT_END
  1
CELLSTYLE_BEGIN
 90
        2
 91
        1
300
_HEADER
309
CELLSTYLE_END
300
CELLSTYLE
  1
TABLEFORMAT_BEGIN
 90
        5
170
     1
 91
        0
 92
        0
 62
   257
 93
        1
300
CONTENTFORMAT
  1
CONTENTFORMAT_BEGIN
 90
        0
 91
        0
 92
        4
 93
        0
300

 40
0.0
140
1.0
 94
        2
 62
     0
340
11
144
0.18
309
CONTENTFORMAT_END
171
     1
301
MARGIN
  1
CELLMARGIN_BEGIN
 40
0.06
 40
0.06
 40
0.06
 40
0.06
 40
0.18
 40
0.18
309
CELLMARGIN_END
 94
        6
 95
        1
302
GRIDFORMAT
  1
GRIDFORMAT_BEGIN
 90
        0
 91
        1
 62
     0
 92
       -2
340
0
 93
        0
 40
0.045
309
GRIDFORMAT_END
 95
        2
302
GRIDFORMAT
  1
GRIDFORMAT_BEGIN
 90
        0
 91
        1
 62
     0
 92
       -2
340
0
 93
        0
 40
0.045
309
GRIDFORMAT_END
 95
        4
302
GRIDFORMAT
  1
GRIDFORMAT_BEGIN
 90
        0
 91
        1
 62
     0
 92
       -2
340
0
 93
        0
 40
0.045
309
GRIDFORMAT_END
 95
        8
302
GRIDFORMAT
  1
GRIDFORMAT_BEGIN
 90
        0
 91
        1
 62
     0
 92
       -2
340
0
 93
        0
 40
0.045
309
GRIDFORMAT_END
 95
       16
302
GRIDFORMAT
  1
GRIDFORMAT_BEGIN
 90
        0
 91
        1
 62
     0
 92
       -2
340
0
 93
        0
 40
0.045
309
GRIDFORMAT_END
 95
       32
302
GRIDFORMAT
  1
GRIDFORMAT_BEGIN
 90
        0
 91
        1
 62
     0
 92
       -2
340
0
 93
        0
 40
0.045
309
GRIDFORMAT_END
309
TABLEFORMAT_END
  1
CELLSTYLE_BEGIN
 90
        3
 91
        2
300
_DATA
309
CELLSTYLE_END
  0
XRECORD
  5
15BA
102
{ACAD_REACTORS
330
D5D
102
}
330
D5D
100
AcDbXrecord
280
     1
102
ACAD_ROUNDTRIP_PRE2007_TABLESTYLE
 90
        4
 91
        0
  1

 92
        4
 93
        0
  2

 94
        4
 95
        0
  3

  0
ENDSEC
  0
EOF
